  0
SECTION
  2
HEADER
  9
$ACADVER
  1
AC1009
  9
$DWGCODEPAGE
  3
dos932
  9
$INSBASE
 10
0.0
 20
0.0
 30
0.0
  9
$EXTMIN
 10
-41.6803327558945
 20
115.3227333333334
 30
0.0
  9
$EXTMAX
 10
399.3525672441055
 20
427.1839333333333
 30
0.0
  9
$LIMMIN
 10
0.0
 20
0.0
  9
$LIMMAX
 10
12.0
 20
9.0
  9
$ORTHOMODE
 70
     0
  9
$REGENMODE
 70
     1
  9
$FILLMODE
 70
     1
  9
$QTEXTMODE
 70
     0
  9
$MIRRTEXT
 70
     1
  9
$DRAGMODE
 70
     2
  9
$LTSCALE
 40
0.9999999999999999
  9
$OSMODE
 70
    37
  9
$ATTMODE
 70
     1
  9
$TEXTSIZE
 40
0.2
  9
$TRACEWID
 40
1.0
  9
$TEXTSTYLE
  7
STANDARD
  9
$CLAYER
  8
__-2
  9
$CELTYPE
  6
BYLAYER
  9
$CECOLOR
 62
   256
  9
$DIMSCALE
 40
1.0
  9
$DIMASZ
 40
0.18
  9
$DIMEXO
 40
0.0625
  9
$DIMDLI
 40
0.38
  9
$DIMRND
 40
0.0
  9
$DIMDLE
 40
0.0
  9
$DIMEXE
 40
0.18
  9
$DIMTP
 40
0.0
  9
$DIMTM
 40
0.0
  9
$DIMTXT
 40
0.18
  9
$DIMCEN
 40
0.09
  9
$DIMTSZ
 40
0.0
  9
$DIMTOL
 70
     0
  9
$DIMLIM
 70
     0
  9
$DIMTIH
 70
     1
  9
$DIMTOH
 70
     1
  9
$DIMSE1
 70
     0
  9
$DIMSE2
 70
     0
  9
$DIMTAD
 70
     0
  9
$DIMZIN
 70
     0
  9
$DIMBLK
  1

  9
$DIMASO
 70
     1
  9
$DIMSHO
 70
     1
  9
$DIMPOST
  1

  9
$DIMAPOST
  1

  9
$DIMALT
 70
     0
  9
$DIMALTD
 70
     2
  9
$DIMALTF
 40
25.4
  9
$DIMLFAC
 40
1.0
  9
$DIMTOFL
 70
     0
  9
$DIMTVP
 40
0.0
  9
$DIMTIX
 70
     0
  9
$DIMSOXD
 70
     0
  9
$DIMSAH
 70
     0
  9
$DIMBLK1
  1

  9
$DIMBLK2
  1

  9
$DIMSTYLE
  2
STANDARD
  9
$DIMCLRD
 70
     0
  9
$DIMCLRE
 70
     0
  9
$DIMCLRT
 70
     0
  9
$DIMTFAC
 40
1.0
  9
$DIMGAP
 40
0.09
  9
$LUNITS
 70
     2
  9
$LUPREC
 70
     1
  9
$SKETCHINC
 40
0.1
  9
$FILLETRAD
 40
0.5
  9
$AUNITS
 70
     0
  9
$AUPREC
 70
     2
  9
$MENU
  1
.
  9
$ELEVATION
 40
0.0
  9
$PELEVATION
 40
0.0
  9
$THICKNESS
 40
0.0
  9
$LIMCHECK
 70
     0
  9
$CHAMFERA
 40
0.0
  9
$CHAMFERB
 40
0.0
  9
$SKPOLY
 70
     0
  9
$TDCREATE
 40
2460686.663690614
  9
$TDUPDATE
 40
2460686.663693704
  9
$TDINDWG
 40
0.0000000116
  9
$TDUSRTIMER
 40
0.0000000116
  9
$USRTIMER
 70
     1
  9
$ANGBASE
 50
0.0
  9
$ANGDIR
 70
     0
  9
$PDMODE
 70
     1
  9
$PDSIZE
 40
-2.0
  9
$PLINEWID
 40
0.0
  9
$COORDS
 70
     1
  9
$SPLFRAME
 70
     0
  9
$SPLINETYPE
 70
     6
  9
$SPLINESEGS
 70
     8
  9
$ATTDIA
 70
     0
  9
$ATTREQ
 70
     1
  9
$HANDLING
 70
     1
  9
$HANDSEED
  5
53A
  9
$SURFTAB1
 70
     6
  9
$SURFTAB2
 70
     6
  9
$SURFTYPE
 70
     6
  9
$SURFU
 70
     6
  9
$SURFV
 70
     6
  9
$UCSNAME
  2

  9
$UCSORG
 10
0.0
 20
0.0
 30
0.0
  9
$UCSXDIR
 10
1.0
 20
0.0
 30
0.0
  9
$UCSYDIR
 10
0.0
 20
1.0
 30
0.0
  9
$PUCSNAME
  2

  9
$PUCSORG
 10
0.0
 20
0.0
 30
0.0
  9
$PUCSXDIR
 10
1.0
 20
0.0
 30
0.0
  9
$PUCSYDIR
 10
0.0
 20
1.0
 30
0.0
  9
$USERI1
 70
     0
  9
$USERI2
 70
     0
  9
$USERI3
 70
     0
  9
$USERI4
 70
     0
  9
$USERI5
 70
     0
  9
$USERR1
 40
0.0
  9
$USERR2
 40
0.0
  9
$USERR3
 40
0.0
  9
$USERR4
 40
0.0
  9
$USERR5
 40
0.0
  9
$WORLDVIEW
 70
     1
  9
$SHADEDGE
 70
     3
  9
$SHADEDIF
 70
    70
  9
$TILEMODE
 70
     1
  9
$MAXACTVP
 70
    64
  9
$PLIMCHECK
 70
     0
  9
$PEXTMIN
 10
1.000000000000000E+20
 20
1.000000000000000E+20
 30
1.000000000000000E+20
  9
$PEXTMAX
 10
-1.000000000000000E+20
 20
-1.000000000000000E+20
 30
-1.000000000000000E+20
  9
$PLIMMIN
 10
-20.0
 20
-7.5
  9
$PLIMMAX
 10
277.0
 20
202.5
  9
$UNITMODE
 70
     0
  9
$VISRETAIN
 70
     1
  9
$PLINEGEN
 70
     0
  9
$PSLTSCALE
 70
     1
  0
ENDSEC
  0
SECTION
  2
TABLES
  0
TABLE
  2
VPORT
 70
     1
  0
VPORT
  2
*ACTIVE
 70
     0
 10
0.0
 20
0.0
 11
1.0
 21
1.0
 12
178.8361172441055
 22
271.2533333333333
 13
0.0
 23
0.0
 14
0.5
 24
0.5
 15
0.5
 25
0.5
 16
0.0
 26
0.0
 36
1.0
 17
0.0
 27
0.0
 37
0.0
 40
311.8611999999999
 41
1.414196123147093
 42
2000.0
 43
0.0
 44
0.0
 50
0.0
 51
0.0
 71
     0
 72
   100
 73
     1
 74
     3
 75
     0
 76
     0
 77
     0
 78
     0
  0
ENDTAB
  0
TABLE
  2
LTYPE
 70
    39
  0
LTYPE
  2
CONTINUOUS
 70
     0
  3
Solid line
 72
    65
 73
     0
 40
0.0
  0
LTYPE
  2
ISO-07___
 70
     0
  3

 72
    65
 73
     2
 40
0.8889999999999999
 49
0.127
 49
-0.7619999999999998
  0
LTYPE
  2
ISO-02___
 70
     0
  3

 72
    65
 73
     2
 40
3.81
 49
3.048
 49
-0.7619999999999999
  0
LTYPE
  2
PHANTOM
 70
     0
  3

 72
    65
 73
     6
 40
3.174999999999999
 49
1.5875
 49
-0.3174999999999999
 49
0.3174999999999999
 49
-0.3174999999999999
 49
0.3174999999999999
 49
-0.3174999999999999
  0
LTYPE
  2
DIVIDE
 70
     0
  3

 72
    65
 73
     6
 40
7.937499999999998
 49
3.174999999999999
 49
-1.587499999999999
 49
0.0025399999999997
 49
-1.58496
 49
0.0025400000000004
 49
-1.584959999999999
  0
LTYPE
  2
CENTER
 70
     0
  3

 72
    65
 73
     4
 40
0.6
 49
0.3
 49
-0.1
 49
0.1
 49
-0.1
  0
LTYPE
  2
CENTERX2
 70
     0
  3

 72
    65
 73
     4
 40
25.4
 49
15.875
 49
-3.175
 49
3.175
 49
-3.175
  0
LTYPE
  2
DASHED2
 70
     0
  3

 72
    65
 73
     2
 40
2.38125
 49
1.5875
 49
-0.7937499999999997
  0
LTYPE
  2
DASHED
 70
     0
  3

 72
    65
 73
     2
 40
4.762499999999999
 49
3.174999999999999
 49
-1.587499999999999
  0
LTYPE
  2
ISO-10______
 70
     0
  3

 72
    65
 73
     4
 40
4.699
 49
3.048
 49
-0.7619999999999999
 49
0.1270000000000001
 49
-0.7619999999999999
  0
LTYPE
  2
DOT
 70
     0
  3

 72
    65
 73
     2
 40
1.5
 49
0.5
 49
-0.9999999999999999
  0
LTYPE
  2
_____-5
 70
     0
  3

 72
    65
 73
     2
 40
1.0580624
 49
0.352679
 49
-0.7053833999999999
  0
LTYPE
  2
AI-LINETYPE-25
 70
     0
  3

 72
    65
 73
     4
 40
0.1411111110758333
 49
0.0352777777689583
 49
-0.0352777777689583
 49
0.0352777777689583
 49
-0.0352777777689583
  0
LTYPE
  2
AI-LINETYPE-26
 70
     0
  3

 72
    65
 73
     4
 40
0.1411111110758333
 49
0.0352777777689583
 49
-0.0352777777689583
 49
0.0352777777689583
 49
-0.0352777777689583
  0
LTYPE
  2
AI-LINETYPE-27
 70
     0
  3

 72
    65
 73
     4
 40
0.1411111110758333
 49
0.0352777777689583
 49
-0.0352777777689583
 49
0.0352777777689583
 49
-0.0352777777689583
  0
LTYPE
  2
AI-LINETYPE-28
 70
     0
  3

 72
    65
 73
     4
 40
0.1411111110758333
 49
0.0352777777689583
 49
-0.0352777777689583
 49
0.0352777777689583
 49
-0.0352777777689583
  0
LTYPE
  2
AI-LINETYPE-29
 70
     0
  3

 72
    65
 73
     4
 40
0.1411111110758333
 49
0.0352777777689583
 49
-0.0352777777689583
 49
0.0352777777689583
 49
-0.0352777777689583
  0
LTYPE
  2
AI-LINETYPE-30
 70
     0
  3

 72
    65
 73
     4
 40
0.1411111110758333
 49
0.0352777777689583
 49
-0.0352777777689583
 49
0.0352777777689583
 49
-0.0352777777689583
  0
LTYPE
  2
AI-LINETYPE-31
 70
     0
  3

 72
    65
 73
     4
 40
0.1411111110758333
 49
0.0352777777689583
 49
-0.0352777777689583
 49
0.0352777777689583
 49
-0.0352777777689583
  0
LTYPE
  2
AI-LINETYPE-32
 70
     0
  3

 72
    65
 73
     4
 40
0.1411111110758333
 49
0.0352777777689583
 49
-0.0352777777689583
 49
0.0352777777689583
 49
-0.0352777777689583
  0
LTYPE
  2
AI-LINETYPE-33
 70
     0
  3

 72
    65
 73
     4
 40
0.1411111110758333
 49
0.0352777777689583
 49
-0.0352777777689583
 49
0.0352777777689583
 49
-0.0352777777689583
  0
LTYPE
  2
AI-LINETYPE-93
 70
     0
  3

 72
    65
 73
     4
 40
0.1411111110758333
 49
0.0352777777689583
 49
-0.0352777777689583
 49
0.0352777777689583
 49
-0.0352777777689583
  0
LTYPE
  2
AI-LINETYPE-94
 70
     0
  3

 72
    65
 73
     4
 40
0.1411111110758333
 49
0.0352777777689583
 49
-0.0352777777689583
 49
0.0352777777689583
 49
-0.0352777777689583
  0
LTYPE
  2
AI-LINETYPE-95
 70
     0
  3

 72
    65
 73
     4
 40
0.1411111110758333
 49
0.0352777777689583
 49
-0.0352777777689583
 49
0.0352777777689583
 49
-0.0352777777689583
  0
LTYPE
  2
AI-LINETYPE-96
 70
     0
  3

 72
    65
 73
     4
 40
0.1411111110758333
 49
0.0352777777689583
 49
-0.0352777777689583
 49
0.0352777777689583
 49
-0.0352777777689583
  0
LTYPE
  2
AI-LINETYPE-97
 70
     0
  3

 72
    65
 73
     4
 40
0.1411111110758333
 49
0.0352777777689583
 49
-0.0352777777689583
 49
0.0352777777689583
 49
-0.0352777777689583
  0
LTYPE
  2
AI-LINETYPE-98
 70
     0
  3

 72
    65
 73
     4
 40
0.1411111110758333
 49
0.0352777777689583
 49
-0.0352777777689583
 49
0.0352777777689583
 49
-0.0352777777689583
  0
LTYPE
  2
AI-LINETYPE-99
 70
     0
  3

 72
    65
 73
     4
 40
0.1411111110758333
 49
0.0352777777689583
 49
-0.0352777777689583
 49
0.0352777777689583
 49
-0.0352777777689583
  0
LTYPE
  2
AI-LINETYPE-100
 70
     0
  3

 72
    65
 73
     4
 40
0.1411111110758333
 49
0.0352777777689583
 49
-0.0352777777689583
 49
0.0352777777689583
 49
-0.0352777777689583
  0
LTYPE
  2
AI-LINETYPE-101
 70
     0
  3

 72
    65
 73
     4
 40
0.1411111110758333
 49
0.0352777777689583
 49
-0.0352777777689583
 49
0.0352777777689583
 49
-0.0352777777689583
  0
LTYPE
  2
AI-LINETYPE-102
 70
     0
  3

 72
    65
 73
     4
 40
0.1411111110758333
 49
0.0352777777689583
 49
-0.0352777777689583
 49
0.0352777777689583
 49
-0.0352777777689583
  0
LTYPE
  2
AI-LINETYPE-103
 70
     0
  3

 72
    65
 73
     4
 40
0.1411111110758333
 49
0.0352777777689583
 49
-0.0352777777689583
 49
0.0352777777689583
 49
-0.0352777777689583
  0
LTYPE
  2
AI-LINETYPE-104
 70
     0
  3

 72
    65
 73
     4
 40
0.1411111110758333
 49
0.0352777777689583
 49
-0.0352777777689583
 49
0.0352777777689583
 49
-0.0352777777689583
  0
LTYPE
  2
AI-LINETYPE-105
 70
     0
  3

 72
    65
 73
     4
 40
0.1411111110758333
 49
0.0352777777689583
 49
-0.0352777777689583
 49
0.0352777777689583
 49
-0.0352777777689583
  0
LTYPE
  2
AI-LINETYPE-106
 70
     0
  3

 72
    65
 73
     4
 40
0.1411111110758333
 49
0.0352777777689583
 49
-0.0352777777689583
 49
0.0352777777689583
 49
-0.0352777777689583
  0
LTYPE
  2
AI-LINETYPE-107
 70
     0
  3

 72
    65
 73
     4
 40
0.1411111110758333
 49
0.0352777777689583
 49
-0.0352777777689583
 49
0.0352777777689583
 49
-0.0352777777689583
  0
LTYPE
  2
AI-LINETYPE-108
 70
     0
  3

 72
    65
 73
     4
 40
0.1411111110758333
 49
0.0352777777689583
 49
-0.0352777777689583
 49
0.0352777777689583
 49
-0.0352777777689583
  0
LTYPE
  2
_____-9
 70
     0
  3

 72
    65
 73
     6
 40
0.9499999999999998
 49
0.325
 49
-0.125
 49
0.125
 49
-0.1249999999999999
 49
0.1249999999999999
 49
-0.1249999999999999
  0
LTYPE
  2
CENTER2
 70
     0
  3

 72
    65
 73
     4
 40
2.857499999999999
 49
1.905
 49
-0.3174999999999999
 49
0.3174999999999999
 49
-0.3174999999999999
  0
ENDTAB
  0
TABLE
  2
LAYER
 70
    11
  0
LAYER
  2
0
 70
     0
 62
     7
  6
CONTINUOUS
  0
LAYER
  2
__
 70
     0
 62
     7
  6
CONTINUOUS
  0
LAYER
  2
__-1
 70
     0
 62
     7
  6
CONTINUOUS
  0
LAYER
  2
__-2
 70
     0
 62
     7
  6
CONTINUOUS
  0
ENDTAB
  0
TABLE
  2
STYLE
 70
     3
  0
STYLE
  2
STANDARD
 70
     0
 40
0.0
 41
1.0
 50
0.0
 71
     0
 42
0.2
  3
txt
  4
BIGFONT.SHX
  0
STYLE
  2
______MEDIUM
 70
     0
 40
0.0
 41
1.0
 50
0.0
 71
     0
 42
0.2
  3

  4
游ゴシック Medium
  0
STYLE
  2
YUGOTHIC_MEDIUM
 70
     0
 40
0.0
 41
1.0
 50
0.0
 71
     0
 42
0.2
  3

  4
YuGothic Medium
  0
ENDTAB
  0
TABLE
  2
VIEW
 70
     0
  0
ENDTAB
  0
TABLE
  2
UCS
 70
     0
  0
ENDTAB
  0
TABLE
  2
APPID
 70
     3
  0
APPID
  2
ACAD
 70
     0
  0
APPID
  2
ACCMTRANSPARENCY
 70
     0
  0
APPID
  2
ACAECLAYERSTANDARD
 70
     0
  0
ENDTAB
  0
TABLE
  2
DIMSTYLE
 70
     1
  0
DIMSTYLE
  2
STANDARD
 70
     0
  3

  4

  5

  6

  7

 40
1.0
 41
0.18
 42
0.0625
 43
0.38
 44
0.18
 45
0.0
 46
0.0
 47
0.0
 48
0.0
140
0.18
141
0.09
142
0.0
143
25.4
144
1.0
145
0.0
146
1.0
147
0.09
 71
     0
 72
     0
 73
     1
 74
     1
 75
     0
 76
     0
 77
     0
 78
     0
170
     0
171
     2
172
     0
173
     0
174
     0
175
     0
176
     0
177
     0
178
     0
  0
ENDTAB
  0
ENDSEC
  0
SECTION
  2
BLOCKS
  0
BLOCK
  8
0
  2
$MODEL_SPACE
 70
     0
 10
0.0
 20
0.0
 30
0.0
  3
$MODEL_SPACE
  1

  0
ENDBLK
  5
21
  8
0
  0
BLOCK
 67
     1
  8
0
  2
$PAPER_SPACE
 70
     0
 10
0.0
 20
0.0
 30
0.0
  3
$PAPER_SPACE
  1

  0
ENDBLK
  5
1D
 67
     1
  8
0
  0
BLOCK
  8
0
  2
____
 70
     0
 10
0.0
 20
0.0
 30
0.0
  3
____
  1

  0
ENDBLK
  5
71
  8
0
  0
BLOCK
  8
0
  2
____-1
 70
     0
 10
0.0
 20
0.0
 30
0.0
  3
____-1
  1

  0
LINE
  5
19F
  8
__
  6
CONTINUOUS
 62
     7
 10
334.2511809235801
 20
-120.5990684466033
 30
0.0
 11
-77.22881907641991
 21
-120.5990684466033
 31
0.0
  0
TEXT
  5
1A0
  8
__
 62
     7
 10
285.957033292623
 20
-125.2563291136698
 30
0.0
 40
2.124016203703704
  1
2025.01.14
  7
______MEDIUM
 11
285.957033292623
 21
-124.1943210118179
 31
0.0
 73
     2
  0
INSERT
  5
1A1
  8
__
 62
     7
  2
____
 10
0.0
 20
0.0
 30
0.0
  0
TEXT
  5
1A2
  8
__
 62
     7
 10
303.873620763623
 20
-124.1930085117796
 30
0.0
 40
1.584743923611111
  1
SCALE:
  7
YUGOTHIC_MEDIUM
 11
303.873620763623
 21
-122.6082645881685
 31
0.0
 73
     3
  0
TEXT
  5
1A3
  8
__
 62
     7
 10
83.86022797860667
 20
-124.3319017799371
 30
0.0
 40
1.584743923611111
  1
NAME:
  7
YUGOTHIC_MEDIUM
 11
83.86022797860667
 21
-122.747157856326
 31
0.0
 73
     3
  0
TEXT
  5
1A4
  8
__
 62
     7
 10
277.7046117058907
 20
-124.233401779937
 30
0.0
 40
1.584743923611111
  1
DATE:
  7
YUGOTHIC_MEDIUM
 11
277.7046117058907
 21
-122.6486578563259
 31
0.0
 73
     3
  0
TEXT
  5
1A5
  8
__
 62
     7
 10
243.8132708897451
 20
-124.1748526152954
 30
0.0
 40
1.584743923611111
  1
ID:
  7
YUGOTHIC_MEDIUM
 11
243.8132708897451
 21
-122.5901086916843
 31
0.0
 73
     3
  0
TEXT
  5
1A6
  8
__
 62
     7
 10
248.7466836874919
 20
-125.1963291136694
 30
0.0
 40
2.124016203703704
  1
PS-HD024-01
  7
______MEDIUM
 11
248.7466836874919
 21
-124.1343210118175
 31
0.0
 73
     2
  0
TEXT
  5
1A7
  8
__
 62
     7
 10
92.74150586574459
 20
-125.2610765484555
 30
0.0
 40
2.124016203703704
  1
アングル把手W75/W150
  7
______MEDIUM
 11
92.74150586574459
 21
-124.1990684466037
 31
0.0
 73
     2
  0
TEXT
  5
1A8
  8
__
 62
     7
 10
248.7466836874919
 20
-129.711884669225
 30
0.0
 40
2.124016203703704
  1
PS-HD024-02
  7
______MEDIUM
 11
248.7466836874919
 21
-128.6498765673731
 31
0.0
 73
     2
  0
ENDBLK
  5
75
  8
0
  0
BLOCK
  8
0
  2
___2D
 70
     0
 10
0.0
 20
0.0
 30
0.0
  3
___2D
  1

  0
INSERT
  5
1A9
  8
__
 62
     7
  2
____-1
 10
0.0
 20
0.0
 30
0.0
  0
TEXT
  5
1AA
  8
__-2
 62
     7
 10
312.8980281101519
 20
-124.7864625491819
 30
0.0
 40
2.124016203703702
  1
1:1(A3)
  7
______MEDIUM
 11
312.8980281101519
 21
-125.6217585117796
 31
0.0
 73
     1
  0
ENDBLK
  5
78
  8
0
  0
BLOCK
  8
0
  2
__-__
 70
     0
 10
0.0
 20
0.0
 30
0.0
  3
__-__
  1

  0
POLYLINE
  5
1AB
  8
__-2
  6
CONTINUOUS
 62
     7
 66
     1
 10
0.0
 20
0.0
 30
0.0
 70
   129
  0
VERTEX
  5
1AC
  8
__-2
  6
CONTINUOUS
 62
     7
 10
-10.35096576076084
 20
-0.5715000000000003
 30
0.0
  0
VERTEX
  5
1AD
  8
__-2
  6
CONTINUOUS
 62
     7
 10
10.35096576076084
 20
-0.5715000000000003
 30
0.0
  0
VERTEX
  5
1AE
  8
__-2
  6
CONTINUOUS
 62
     7
 10
10.35096576076084
 20
-6.794499999999999
 30
0.0
  0
VERTEX
  5
1AF
  8
__-2
  6
CONTINUOUS
 62
     7
 10
-10.35096576076084
 20
-6.794499999999999
 30
0.0
  0
SEQEND
  5
1B0
  8
__-2
  6
CONTINUOUS
 62
     7
  0
TEXT
  5
1B1
  8
__-2
 62
     7
 10
-9.181723795572918
 20
-4.286249999999999
 30
0.0
 40
2.389518229166667
  1
上面図(W75)
  7
______MEDIUM
 72
     1
 11
0.0
 21
-1.896731770833333
 31
0.0
 73
     3
  0
ENDBLK
  5
7E
  8
0
  0
BLOCK
  8
0
  2
__-__-1
 70
     0
 10
0.0
 20
0.0
 30
0.0
  3
__-__-1
  1

  0
POLYLINE
  5
1B2
  8
__-2
  6
CONTINUOUS
 62
     7
 66
     1
 10
0.0
 20
0.0
 30
0.0
 70
   129
  0
VERTEX
  5
1B3
  8
__-2
  6
CONTINUOUS
 62
     7
 10
-10.35096576076084
 20
-0.5715000000000003
 30
0.0
  0
VERTEX
  5
1B4
  8
__-2
  6
CONTINUOUS
 62
     7
 10
10.35096576076084
 20
-0.5715000000000003
 30
0.0
  0
VERTEX
  5
1B5
  8
__-2
  6
CONTINUOUS
 62
     7
 10
10.35096576076084
 20
-6.794499999999999
 30
0.0
  0
VERTEX
  5
1B6
  8
__-2
  6
CONTINUOUS
 62
     7
 10
-10.35096576076084
 20
-6.794499999999999
 30
0.0
  0
SEQEND
  5
1B7
  8
__-2
  6
CONTINUOUS
 62
     7
  0
TEXT
  5
1B8
  8
__-2
 62
     7
 10
-9.181723795572918
 20
-4.286249999999999
 30
0.0
 40
2.389518229166667
  1
正面図(W75)
  7
______MEDIUM
 72
     1
 11
0.0
 21
-1.896731770833333
 31
0.0
 73
     3
  0
ENDBLK
  5
81
  8
0
  0
BLOCK
  8
0
  2
____3D
 70
     0
 10
0.0
 20
0.0
 30
0.0
  3
____3D
  1

  0
LINE
  5
1B9
  8
__-2
  6
CONTINUOUS
 10
82.97506367945653
 20
74.98128649059026
 30
0.0
 11
7.975063679456525
 21
74.98128649059026
 31
0.0
  0
LINE
  5
1BA
  8
__-2
  6
CONTINUOUS
 10
82.9750636794547
 20
110.4812864905925
 30
0.0
 11
82.97506367945653
 21
74.98128649059026
 31
0.0
  0
LINE
  5
1BB
  8
__-2
  6
CONTINUOUS
 10
82.9750636794563
 20
110.4812864905925
 30
0.0
 11
7.975063679456298
 21
110.4812864905925
 31
0.0
  0
LINE
  5
1BC
  8
__-2
  6
CONTINUOUS
 10
7.975063679458344
 20
110.4812864905925
 30
0.0
 11
7.975063679456525
 21
74.98128649059026
 31
0.0
  0
LINE
  5
1BD
  8
__-2
  6
DASHED2
 62
   251
 10
82.9750636794563
 20
76.58128649059063
 30
0.0
 11
7.975063679456298
 21
76.58128649059063
 31
0.0
  0
LINE
  5
1BE
  8
__-2
  6
CONTINUOUS
 10
72.97506367945607
 20
105.6085010279485
 30
0.0
 11
72.97506367945607
 21
113.6085010279485
 31
0.0
  0
LINE
  5
1BF
  8
__-2
  6
DASHED2
 62
   251
 10
82.9750636794563
 20
109.2812864905925
 30
0.0
 11
7.975063679456298
 21
109.2812864905925
 31
0.0
  0
LINE
  5
1C0
  8
__-2
  6
CONTINUOUS
 10
17.97506367945698
 20
105.6085010279485
 30
0.0
 11
17.97506367945698
 21
113.6085010279485
 31
0.0
  0
LINE
  5
1C1
  8
__-2
  6
CONTINUOUS
 10
82.97506367945653
 20
79.3812864905899
 30
0.0
 11
7.975063679456525
 21
79.38128649059036
 31
0.0
  0
LINE
  5
1C2
  8
__-2
  6
DASHED2
 62
   251
 10
77.17506367945703
 20
110.481286490593
 30
0.0
 11
75.97506367945657
 21
109.2812864905925
 31
0.0
  0
LINE
  5
1C3
  8
__-2
  6
DASHED2
 62
   251
 10
68.77506367945603
 20
110.481286490593
 30
0.0
 11
69.97506367945665
 21
109.2812864905925
 31
0.0
  0
LINE
  5
1C4
  8
__-2
  6
DASHED2
 62
   251
 10
22.17506367945793
 20
110.481286490593
 30
0.0
 11
20.97506367945748
 21
109.2812864905925
 31
0.0
  0
LINE
  5
1C5
  8
__-2
  6
DASHED2
 62
   251
 10
13.77506367945693
 20
110.481286490593
 30
0.0
 11
14.97506367945756
 21
109.2812864905925
 31
0.0
  0
ENDBLK
  5
84
  8
0
  0
BLOCK
  8
0
  2
____-2
 70
     0
 10
0.0
 20
0.0
 30
0.0
  3
____-2
  1

  0
TEXT
  5
1C6
  8
__-2
 62
     7
 10
-65.45830557156194
 20
73.03457573784836
 30
0.0
 40
2.124016203703704
  1
35.5
 50
90.0
  7
______MEDIUM
 11
-67.58232177526564
 21
73.03457573784836
 31
0.0
 73
     3
  0
ENDBLK
  5
88
  8
0
  0
BLOCK
  8
0
  2
____-3
 70
     0
 10
0.0
 20
0.0
 30
0.0
  3
____-3
  1

  0
LINE
  5
1C7
  8
__-2
  6
CONTINUOUS
 62
     7
 10
-52.73675001600643
 20
93.50000000000227
 30
0.0
 11
-62.73675001600643
 21
93.50000000000227
 31
0.0
  0
LINE
  5
1C8
  8
__-2
  6
CONTINUOUS
 62
     7
 10
-52.73675001600643
 20
58.0
 30
0.0
 11
-62.73675001600643
 21
58.0
 31
0.0
  0
LINE
  5
1C9
  8
__-2
  6
CONTINUOUS
 62
     7
 10
-62.73675001600643
 20
93.50000000000227
 30
0.0
 11
-62.73675001600643
 21
58.0
 31
0.0
  0
CIRCLE
  5
1CA
  8
__-2
  6
CONTINUOUS
 62
     7
 10
-62.73675001600643
 20
93.50000000000227
 30
0.0
 40
0.2999816894531264
  0
CIRCLE
  5
1CB
  8
__-2
  6
CONTINUOUS
 62
     7
 10
-62.73675001600643
 20
58.0
 30
0.0
 40
0.2999816894531264
  0
INSERT
  5
1CC
  8
__-2
 62
     7
  2
____-2
 10
0.0
 20
0.0
 30
0.0
  0
ENDBLK
  5
8B
  8
0
  0
BLOCK
  8
0
  2
____-4
 70
     0
 10
0.0
 20
0.0
 30
0.0
  3
____-4
  1

  0
TEXT
  5
1CD
  8
__-2
 62
     7
 10
-11.80357944309111
 20
116.2215555555578
 30
0.0
 40
2.124016203703704
  1
75
  7
______MEDIUM
 11
-11.80357944309111
 21
118.3455717592615
 31
0.0
 73
     3
  0
ENDBLK
  5
8E
  8
0
  0
BLOCK
  8
0
  2
____-5
 70
     0
 10
0.0
 20
0.0
 30
0.0
  3
____-5
  1

  0
LINE
  5
1CE
  8
__-2
  6
CONTINUOUS
 62
     7
 10
27.26324998399221
 20
98.50000000000227
 30
0.0
 11
27.26324998399221
 21
113.5000000000023
 31
0.0
  0
LINE
  5
1CF
  8
__-2
  6
CONTINUOUS
 62
     7
 10
-47.73675001600779
 20
98.50000000000227
 30
0.0
 11
-47.73675001600779
 21
113.5000000000023
 31
0.0
  0
LINE
  5
1D0
  8
__-2
  6
CONTINUOUS
 62
     7
 10
27.26324998399221
 20
113.5000000000023
 30
0.0
 11
-47.73675001600779
 21
113.5000000000023
 31
0.0
  0
CIRCLE
  5
1D1
  8
__-2
  6
CONTINUOUS
 62
     7
 10
27.26324998399221
 20
113.5000000000023
 30
0.0
 40
0.2999816894531264
  0
CIRCLE
  5
1D2
  8
__-2
  6
CONTINUOUS
 62
     7
 10
-47.73675001600779
 20
113.5000000000023
 30
0.0
 40
0.2999816894531264
  0
INSERT
  5
1D3
  8
__-2
 62
     7
  2
____-4
 10
0.0
 20
0.0
 30
0.0
  0
ENDBLK
  5
91
  8
0
  0
BLOCK
  8
0
  2
____-6
 70
     0
 10
0.0
 20
0.0
 30
0.0
  3
____-6
  1

  0
TEXT
  5
1D4
  8
__-2
 62
     7
 10
-44.30357944309065
 20
106.2215555555578
 30
0.0
 40
2.124016203703704
  1
10
  7
______MEDIUM
 11
-44.30357944309065
 21
108.3455717592615
 31
0.0
 73
     3
  0
ENDBLK
  5
94
  8
0
  0
BLOCK
  8
0
  2
____-7
 70
     0
 10
0.0
 20
0.0
 30
0.0
  3
____-7
  1

  0
LINE
  5
1D5
  8
__-2
  6
CONTINUOUS
 62
     7
 10
-37.73675001600779
 20
98.50000000000227
 30
0.0
 11
-37.73675001600779
 21
103.5000000000023
 31
0.0
  0
LINE
  5
1D6
  8
__-2
  6
CONTINUOUS
 62
     7
 10
-47.73675001600688
 20
98.50000000000227
 30
0.0
 11
-47.73675001600688
 21
103.5000000000023
 31
0.0
  0
LINE
  5
1D7
  8
__-2
  6
CONTINUOUS
 62
     7
 10
-37.73675001600779
 20
103.5000000000023
 30
0.0
 11
-47.73675001600688
 21
103.5000000000023
 31
0.0
  0
CIRCLE
  5
1D8
  8
__-2
  6
CONTINUOUS
 62
     7
 10
-37.73675001600779
 20
103.5000000000023
 30
0.0
 40
0.2999816894531264
  0
CIRCLE
  5
1D9
  8
__-2
  6
CONTINUOUS
 62
     7
 10
-47.73675001600688
 20
103.5000000000023
 30
0.0
 40
0.2999816894531264
  0
INSERT
  5
1DA
  8
__-2
 62
     7
  2
____-6
 10
0.0
 20
0.0
 30
0.0
  0
ENDBLK
  5
97
  8
0
  0
BLOCK
  8
0
  2
____-8
 70
     0
 10
0.0
 20
0.0
 30
0.0
  3
____-8
  1

  0
TEXT
  5
1DB
  8
__-2
 62
     7
 10
-11.80357944309145
 20
106.2215555555578
 30
0.0
 40
2.124016203703704
  1
55
  7
______MEDIUM
 11
-11.80357944309145
 21
108.3455717592615
 31
0.0
 73
     3
  0
ENDBLK
  5
9A
  8
0
  0
BLOCK
  8
0
  2
____-9
 70
     0
 10
0.0
 20
0.0
 30
0.0
  3
____-9
  1

  0
LINE
  5
1DC
  8
__-2
  6
CONTINUOUS
 62
     7
 10
-37.73675001600813
 20
98.50000000000227
 30
0.0
 11
-37.73675001600813
 21
103.5000000000023
 31
0.0
  0
LINE
  5
1DD
  8
__-2
  6
CONTINUOUS
 62
     7
 10
17.26324998399187
 20
98.50000000000227
 30
0.0
 11
17.26324998399187
 21
103.5000000000023
 31
0.0
  0
LINE
  5
1DE
  8
__-2
  6
CONTINUOUS
 62
     7
 10
-37.73675001600813
 20
103.5000000000023
 30
0.0
 11
17.26324998399187
 21
103.5000000000023
 31
0.0
  0
CIRCLE
  5
1DF
  8
__-2
  6
CONTINUOUS
 62
     7
 10
-37.73675001600813
 20
103.5000000000023
 30
0.0
 40
0.2999816894531264
  0
CIRCLE
  5
1E0
  8
__-2
  6
CONTINUOUS
 62
     7
 10
17.26324998399187
 20
103.5000000000023
 30
0.0
 40
0.2999816894531264
  0
INSERT
  5
1E1
  8
__-2
 62
     7
  2
____-8
 10
0.0
 20
0.0
 30
0.0
  0
ENDBLK
  5
9D
  8
0
  0
BLOCK
  8
0
  2
____-10
 70
     0
 10
0.0
 20
0.0
 30
0.0
  3
____-10
  1

  0
TEXT
  5
1E2
  8
__-2
 62
     7
 10
20.69642055690844
 20
106.2215555555578
 30
0.0
 40
2.124016203703704
  1
10
  7
______MEDIUM
 11
20.69642055690844
 21
108.3455717592615
 31
0.0
 73
     3
  0
ENDBLK
  5
A0
  8
0
  0
BLOCK
  8
0
  2
____-11
 70
     0
 10
0.0
 20
0.0
 30
0.0
  3
____-11
  1

  0
LINE
  5
1E3
  8
__-2
  6
CONTINUOUS
 62
     7
 10
27.26324998399198
 20
98.50000000000227
 30
0.0
 11
27.26324998399198
 21
103.5000000000023
 31
0.0
  0
LINE
  5
1E4
  8
__-2
  6
CONTINUOUS
 62
     7
 10
17.26324998399153
 20
98.50000000000227
 30
0.0
 11
17.26324998399153
 21
103.5000000000023
 31
0.0
  0
LINE
  5
1E5
  8
__-2
  6
CONTINUOUS
 62
     7
 10
27.26324998399198
 20
103.5000000000023
 30
0.0
 11
17.26324998399153
 21
103.5000000000023
 31
0.0
  0
CIRCLE
  5
1E6
  8
__-2
  6
CONTINUOUS
 62
     7
 10
27.26324998399198
 20
103.5000000000023
 30
0.0
 40
0.2999816894531264
  0
CIRCLE
  5
1E7
  8
__-2
  6
CONTINUOUS
 62
     7
 10
17.26324998399153
 20
103.5000000000023
 30
0.0
 40
0.2999816894531264
  0
INSERT
  5
1E8
  8
__-2
 62
     7
  2
____-10
 10
0.0
 20
0.0
 30
0.0
  0
ENDBLK
  5
A3
  8
0
  0
BLOCK
  8
0
  2
____-12
 70
     0
 10
0.0
 20
0.0
 30
0.0
  3
____-12
  1

  0
INSERT
  5
1E9
  8
__-2
 62
     7
  2
____-3
 10
0.0
 20
0.0
 30
0.0
  0
INSERT
  5
1EA
  8
__-2
 62
     7
  2
____-5
 10
0.0
 20
0.0
 30
0.0
  0
INSERT
  5
1EB
  8
__-2
 62
     7
  2
____-7
 10
0.0
 20
0.0
 30
0.0
  0
INSERT
  5
1EC
  8
__-2
 62
     7
  2
____-9
 10
0.0
 20
0.0
 30
0.0
  0
INSERT
  5
1ED
  8
__-2
 62
     7
  2
____-11
 10
0.0
 20
0.0
 30
0.0
  0
ENDBLK
  5
A6
  8
0
  0
BLOCK
  8
0
  2
___-2_3D
 70
     0
 10
0.0
 20
0.0
 30
0.0
  3
___-2_3D
  1

  0
LINE
  5
1EE
  8
__-2
  6
DASHED2
 62
   251
 10
82.9750636794563
 20
12.44099750725245
 30
0.0
 11
7.975063679456298
 21
12.44099750725245
 31
0.0
  0
LINE
  5
1EF
  8
__-2
  6
CONTINUOUS
 10
82.97506367945698
 20
13.64099750725245
 30
0.0
 11
7.97506367945698
 21
13.64099750725245
 31
0.0
  0
LINE
  5
1F0
  8
__-2
  6
CONTINUOUS
 10
81.47506367945743
 20
4.64099750725245
 30
0.0
 11
9.475063679457435
 21
4.64099750725245
 31
0.0
  0
LINE
  5
1F1
  8
__-2
  6
CONTINUOUS
 10
66.81011707149833
 20
1.640997507251541
 30
0.0
 11
79.1400102874145
 21
1.640997507251541
 31
0.0
  0
LINE
  5
1F2
  8
__-2
  6
CONTINUOUS
 10
72.9750636794563
 20
7.805944115209968
 30
0.0
 11
72.9750636794563
 21
-4.523949100706432
 31
0.0
  0
LINE
  5
1F3
  8
__-2
  6
CONTINUOUS
 10
8.475063679457435
 20
-11.35900249274846
 30
0.0
 11
82.47506367945743
 21
-11.35900249274846
 31
0.0
  0
LINE
  5
1F4
  8
__-2
  6
CONTINUOUS
 10
24.14001028741518
 20
1.640997507251541
 30
0.0
 11
11.81011707149878
 21
1.640997507251541
 31
0.0
  0
LINE
  5
1F5
  8
__-2
  6
CONTINUOUS
 10
17.97506367945698
 20
7.805944115209968
 30
0.0
 11
17.97506367945698
 21
-4.523949100706432
 31
0.0
  0
LINE
  5
1F6
  8
__-2
  6
CONTINUOUS
 10
7.975063679458117
 20
13.64099750725245
 30
0.0
 11
7.975063679458117
 21
-10.85900249274846
 31
0.0
  0
ARC
  5
1F7
  8
__-2
  6
CONTINUOUS
 10
9.475063679458117
 20
6.140997507252451
 30
0.0
 40
1.5
 50
180.0
 51
270.0
  0
POLYLINE
  5
1F8
  8
__-2
  6
CONTINUOUS
 66
     1
 10
0.0
 20
0.0
 30
0.0
 70
   129
  0
VERTEX
  5
1F9
  8
__-2
  6
CONTINUOUS
 10
75.57506367945632
 20
1.640997507251541
 30
0.0
  0
VERTEX
  5
1FA
  8
__-2
  6
CONTINUOUS
 10
75.56254396880404
 20
1.386152942394681
 30
0.0
  0
VERTEX
  5
1FB
  8
__-2
  6
CONTINUOUS
 10
75.52510540850471
 20
1.133762670009603
 30
0.0
  0
VERTEX
  5
1FC
  8
__-2
  6
CONTINUOUS
 10
75.46310855236007
 20
0.8862573463899321
 30
0.0
  0
VERTEX
  5
1FD
  8
__-2
  6
CONTINUOUS
 10
75.37715046398566
 20
0.6460205831022985
 30
0.0
  0
VERTEX
  5
1FE
  8
__-2
  6
CONTINUOUS
 10
75.26805896676204
 20
0.4153659915039363
 30
0.0
  0
VERTEX
  5
1FF
  8
__-2
  6
CONTINUOUS
 10
75.13688467144293
 20
0.1965149014005623
 30
0.0
  0
VERTEX
  5
200
  8
__-2
  6
CONTINUOUS
 10
74.98489085819944
 20
-0.0084250315739518
 30
0.0
  0
VERTEX
  5
201
  8
__-2
  6
CONTINUOUS
 10
74.81354131054134
 20
-0.1974801238334989
 30
0.0
  0
VERTEX
  5
202
  8
__-2
  6
CONTINUOUS
 10
74.62448621828179
 20
-0.3688296714915928
 30
0.0
  0
VERTEX
  5
203
  8
__-2
  6
CONTINUOUS
 10
74.41954628530728
 20
-0.5208234847350957
 30
0.0
  0
VERTEX
  5
204
  8
__-2
  6
CONTINUOUS
 10
74.2006951952039
 20
-0.6519977800542023
 30
0.0
  0
VERTEX
  5
205
  8
__-2
  6
CONTINUOUS
 10
73.97004060360554
 20
-0.7610892772778257
 30
0.0
  0
VERTEX
  5
206
  8
__-2
  6
CONTINUOUS
 10
73.72980384031791
 20
-0.8470473656522239
 30
0.0
  0
VERTEX
  5
207
  8
__-2
  6
CONTINUOUS
 10
73.48229851669824
 20
-0.9090442217968806
 30
0.0
  0
VERTEX
  5
208
  8
__-2
  6
CONTINUOUS
 10
73.22990824431315
 20
-0.9464827820961936
 30
0.0
  0
VERTEX
  5
209
  8
__-2
  6
CONTINUOUS
 10
72.9750636794563
 20
-0.9590024927484819
 30
0.0
  0
VERTEX
  5
20A
  8
__-2
  6
CONTINUOUS
 10
72.72021911459944
 20
-0.9464827820961936
 30
0.0
  0
VERTEX
  5
20B
  8
__-2
  6
CONTINUOUS
 10
72.46782884221436
 20
-0.9090442217968806
 30
0.0
  0
VERTEX
  5
20C
  8
__-2
  6
CONTINUOUS
 10
72.22032351859468
 20
-0.8470473656522239
 30
0.0
  0
VERTEX
  5
20D
  8
__-2
  6
CONTINUOUS
 10
71.98008675530706
 20
-0.7610892772778257
 30
0.0
  0
VERTEX
  5
20E
  8
__-2
  6
CONTINUOUS
 10
71.74943216370869
 20
-0.6519977800542023
 30
0.0
  0
VERTEX
  5
20F
  8
__-2
  6
CONTINUOUS
 10
71.53058107360532
 20
-0.5208234847350957
 30
0.0
  0
VERTEX
  5
210
  8
__-2
  6
CONTINUOUS
 10
71.32564114063081
 20
-0.3688296714915928
 30
0.0
  0
VERTEX
  5
211
  8
__-2
  6
CONTINUOUS
 10
71.13658604837126
 20
-0.1974801238334989
 30
0.0
  0
VERTEX
  5
212
  8
__-2
  6
CONTINUOUS
 10
70.96523650071316
 20
-0.0084250315739518
 30
0.0
  0
VERTEX
  5
213
  8
__-2
  6
CONTINUOUS
 10
70.81324268746967
 20
0.1965149014005623
 30
0.0
  0
VERTEX
  5
214
  8
__-2
  6
CONTINUOUS
 10
70.68206839215055
 20
0.4153659915039363
 30
0.0
  0
VERTEX
  5
215
  8
__-2
  6
CONTINUOUS
 10
70.57297689492694
 20
0.6460205831022985
 30
0.0
  0
VERTEX
  5
216
  8
__-2
  6
CONTINUOUS
 10
70.48701880655253
 20
0.8862573463899321
 30
0.0
  0
VERTEX
  5
217
  8
__-2
  6
CONTINUOUS
 10
70.42502195040788
 20
1.133762670009603
 30
0.0
  0
VERTEX
  5
218
  8
__-2
  6
CONTINUOUS
 10
70.38758339010856
 20
1.386152942394681
 30
0.0
  0
VERTEX
  5
219
  8
__-2
  6
CONTINUOUS
 10
70.37506367945628
 20
1.640997507251541
 30
0.0
  0
VERTEX
  5
21A
  8
__-2
  6
CONTINUOUS
 10
70.38758339010856
 20
1.8958420721084
 30
0.0
  0
VERTEX
  5
21B
  8
__-2
  6
CONTINUOUS
 10
70.42502195040788
 20
2.148232344493479
 30
0.0
  0
VERTEX
  5
21C
  8
__-2
  6
CONTINUOUS
 10
70.48701880655253
 20
2.395737668113149
 30
0.0
  0
VERTEX
  5
21D
  8
__-2
  6
CONTINUOUS
 10
70.57297689492694
 20
2.635974431400783
 30
0.0
  0
VERTEX
  5
21E
  8
__-2
  6
CONTINUOUS
 10
70.68206839215055
 20
2.866629022999145
 30
0.0
  0
VERTEX
  5
21F
  8
__-2
  6
CONTINUOUS
 10
70.81324268746967
 20
3.085480113102519
 30
0.0
  0
VERTEX
  5
220
  8
__-2
  6
CONTINUOUS
 10
70.96523650071316
 20
3.290420046077033
 30
0.0
  0
VERTEX
  5
221
  8
__-2
  6
CONTINUOUS
 10
71.13658604837126
 20
3.47947513833658
 30
0.0
  0
VERTEX
  5
222
  8
__-2
  6
CONTINUOUS
 10
71.32564114063081
 20
3.650824685994674
 30
0.0
  0
VERTEX
  5
223
  8
__-2
  6
CONTINUOUS
 10
71.53058107360532
 20
3.802818499238177
 30
0.0
  0
VERTEX
  5
224
  8
__-2
  6
CONTINUOUS
 10
71.74943216370869
 20
3.933992794557284
 30
0.0
  0
VERTEX
  5
225
  8
__-2
  6
CONTINUOUS
 10
71.98008675530706
 20
4.043084291780907
 30
0.0
  0
VERTEX
  5
226
  8
__-2
  6
CONTINUOUS
 10
72.22032351859468
 20
4.129042380155306
 30
0.0
  0
VERTEX
  5
227
  8
__-2
  6
CONTINUOUS
 10
72.46782884221436
 20
4.191039236299963
 30
0.0
  0
VERTEX
  5
228
  8
__-2
  6
CONTINUOUS
 10
72.72021911459944
 20
4.228477796599275
 30
0.0
  0
VERTEX
  5
229
  8
__-2
  6
CONTINUOUS
 10
72.9750636794563
 20
4.240997507251564
 30
0.0
  0
VERTEX
  5
22A
  8
__-2
  6
CONTINUOUS
 10
73.22990824431315
 20
4.228477796599275
 30
0.0
  0
VERTEX
  5
22B
  8
__-2
  6
CONTINUOUS
 10
73.48229851669824
 20
4.191039236299963
 30
0.0
  0
VERTEX
  5
22C
  8
__-2
  6
CONTINUOUS
 10
73.72980384031791
 20
4.129042380155306
 30
0.0
  0
VERTEX
  5
22D
  8
__-2
  6
CONTINUOUS
 10
73.97004060360554
 20
4.043084291780907
 30
0.0
  0
VERTEX
  5
22E
  8
__-2
  6
CONTINUOUS
 10
74.2006951952039
 20
3.933992794557284
 30
0.0
  0
VERTEX
  5
22F
  8
__-2
  6
CONTINUOUS
 10
74.41954628530728
 20
3.802818499238177
 30
0.0
  0
VERTEX
  5
230
  8
__-2
  6
CONTINUOUS
 10
74.62448621828179
 20
3.650824685994674
 30
0.0
  0
VERTEX
  5
231
  8
__-2
  6
CONTINUOUS
 10
74.81354131054134
 20
3.47947513833658
 30
0.0
  0
VERTEX
  5
232
  8
__-2
  6
CONTINUOUS
 10
74.98489085819944
 20
3.290420046077033
 30
0.0
  0
VERTEX
  5
233
  8
__-2
  6
CONTINUOUS
 10
75.13688467144293
 20
3.085480113102519
 30
0.0
  0
VERTEX
  5
234
  8
__-2
  6
CONTINUOUS
 10
75.26805896676204
 20
2.866629022999145
 30
0.0
  0
VERTEX
  5
235
  8
__-2
  6
CONTINUOUS
 10
75.37715046398566
 20
2.635974431400783
 30
0.0
  0
VERTEX
  5
236
  8
__-2
  6
CONTINUOUS
 10
75.46310855236007
 20
2.395737668113149
 30
0.0
  0
VERTEX
  5
237
  8
__-2
  6
CONTINUOUS
 10
75.52510540850471
 20
2.148232344493479
 30
0.0
  0
VERTEX
  5
238
  8
__-2
  6
CONTINUOUS
 10
75.56254396880404
 20
1.8958420721084
 30
0.0
  0
SEQEND
  5
239
  8
__-2
  6
CONTINUOUS
  0
POLYLINE
  5
23A
  8
__-2
  6
CONTINUOUS
 66
     1
 10
0.0
 20
0.0
 30
0.0
 70
   129
  0
VERTEX
  5
23B
  8
__-2
  6
CONTINUOUS
 10
20.575063679457
 20
1.640997507251541
 30
0.0
  0
VERTEX
  5
23C
  8
__-2
  6
CONTINUOUS
 10
20.56254396880471
 20
1.386152942394681
 30
0.0
  0
VERTEX
  5
23D
  8
__-2
  6
CONTINUOUS
 10
20.5251054085054
 20
1.133762670009603
 30
0.0
  0
VERTEX
  5
23E
  8
__-2
  6
CONTINUOUS
 10
20.46310855236074
 20
0.8862573463899321
 30
0.0
  0
VERTEX
  5
23F
  8
__-2
  6
CONTINUOUS
 10
20.37715046398635
 20
0.6460205831022985
 30
0.0
  0
VERTEX
  5
240
  8
__-2
  6
CONTINUOUS
 10
20.26805896676272
 20
0.4153659915039363
 30
0.0
  0
VERTEX
  5
241
  8
__-2
  6
CONTINUOUS
 10
20.13688467144362
 20
0.1965149014005623
 30
0.0
  0
VERTEX
  5
242
  8
__-2
  6
CONTINUOUS
 10
19.98489085820011
 20
-0.0084250315739518
 30
0.0
  0
VERTEX
  5
243
  8
__-2
  6
CONTINUOUS
 10
19.81354131054202
 20
-0.1974801238334989
 30
0.0
  0
VERTEX
  5
244
  8
__-2
  6
CONTINUOUS
 10
19.62448621828247
 20
-0.3688296714915928
 30
0.0
  0
VERTEX
  5
245
  8
__-2
  6
CONTINUOUS
 10
19.41954628530796
 20
-0.5208234847350957
 30
0.0
  0
VERTEX
  5
246
  8
__-2
  6
CONTINUOUS
 10
19.20069519520458
 20
-0.6519977800542023
 30
0.0
  0
VERTEX
  5
247
  8
__-2
  6
CONTINUOUS
 10
18.97004060360622
 20
-0.7610892772778257
 30
0.0
  0
VERTEX
  5
248
  8
__-2
  6
CONTINUOUS
 10
18.72980384031859
 20
-0.8470473656522239
 30
0.0
  0
VERTEX
  5
249
  8
__-2
  6
CONTINUOUS
 10
18.48229851669892
 20
-0.9090442217968806
 30
0.0
  0
VERTEX
  5
24A
  8
__-2
  6
CONTINUOUS
 10
18.22990824431384
 20
-0.9464827820961936
 30
0.0
  0
VERTEX
  5
24B
  8
__-2
  6
CONTINUOUS
 10
17.97506367945698
 20
-0.9590024927484819
 30
0.0
  0
VERTEX
  5
24C
  8
__-2
  6
CONTINUOUS
 10
17.72021911460012
 20
-0.9464827820961936
 30
0.0
  0
VERTEX
  5
24D
  8
__-2
  6
CONTINUOUS
 10
17.46782884221504
 20
-0.9090442217968806
 30
0.0
  0
VERTEX
  5
24E
  8
__-2
  6
CONTINUOUS
 10
17.22032351859537
 20
-0.8470473656522239
 30
0.0
  0
VERTEX
  5
24F
  8
__-2
  6
CONTINUOUS
 10
16.98008675530774
 20
-0.7610892772778257
 30
0.0
  0
VERTEX
  5
250
  8
__-2
  6
CONTINUOUS
 10
16.74943216370938
 20
-0.6519977800542023
 30
0.0
  0
VERTEX
  5
251
  8
__-2
  6
CONTINUOUS
 10
16.530581073606
 20
-0.5208234847350957
 30
0.0
  0
VERTEX
  5
252
  8
__-2
  6
CONTINUOUS
 10
16.32564114063149
 20
-0.3688296714915928
 30
0.0
  0
VERTEX
  5
253
  8
__-2
  6
CONTINUOUS
 10
16.13658604837194
 20
-0.1974801238334989
 30
0.0
  0
VERTEX
  5
254
  8
__-2
  6
CONTINUOUS
 10
15.96523650071385
 20
-0.0084250315739518
 30
0.0
  0
VERTEX
  5
255
  8
__-2
  6
CONTINUOUS
 10
15.81324268747034
 20
0.1965149014005623
 30
0.0
  0
VERTEX
  5
256
  8
__-2
  6
CONTINUOUS
 10
15.68206839215124
 20
0.4153659915039363
 30
0.0
  0
VERTEX
  5
257
  8
__-2
  6
CONTINUOUS
 10
15.57297689492761
 20
0.6460205831022985
 30
0.0
  0
VERTEX
  5
258
  8
__-2
  6
CONTINUOUS
 10
15.48701880655321
 20
0.8862573463899321
 30
0.0
  0
VERTEX
  5
259
  8
__-2
  6
CONTINUOUS
 10
15.42502195040856
 20
1.133762670009603
 30
0.0
  0
VERTEX
  5
25A
  8
__-2
  6
CONTINUOUS
 10
15.38758339010925
 20
1.386152942394681
 30
0.0
  0
VERTEX
  5
25B
  8
__-2
  6
CONTINUOUS
 10
15.37506367945696
 20
1.640997507251541
 30
0.0
  0
VERTEX
  5
25C
  8
__-2
  6
CONTINUOUS
 10
15.38758339010925
 20
1.8958420721084
 30
0.0
  0
VERTEX
  5
25D
  8
__-2
  6
CONTINUOUS
 10
15.42502195040856
 20
2.148232344493479
 30
0.0
  0
VERTEX
  5
25E
  8
__-2
  6
CONTINUOUS
 10
15.48701880655321
 20
2.395737668113149
 30
0.0
  0
VERTEX
  5
25F
  8
__-2
  6
CONTINUOUS
 10
15.57297689492761
 20
2.635974431400783
 30
0.0
  0
VERTEX
  5
260
  8
__-2
  6
CONTINUOUS
 10
15.68206839215124
 20
2.866629022999145
 30
0.0
  0
VERTEX
  5
261
  8
__-2
  6
CONTINUOUS
 10
15.81324268747034
 20
3.085480113102519
 30
0.0
  0
VERTEX
  5
262
  8
__-2
  6
CONTINUOUS
 10
15.96523650071385
 20
3.290420046077033
 30
0.0
  0
VERTEX
  5
263
  8
__-2
  6
CONTINUOUS
 10
16.13658604837194
 20
3.47947513833658
 30
0.0
  0
VERTEX
  5
264
  8
__-2
  6
CONTINUOUS
 10
16.32564114063149
 20
3.650824685994674
 30
0.0
  0
VERTEX
  5
265
  8
__-2
  6
CONTINUOUS
 10
16.530581073606
 20
3.802818499238177
 30
0.0
  0
VERTEX
  5
266
  8
__-2
  6
CONTINUOUS
 10
16.74943216370938
 20
3.933992794557284
 30
0.0
  0
VERTEX
  5
267
  8
__-2
  6
CONTINUOUS
 10
16.98008675530774
 20
4.043084291780907
 30
0.0
  0
VERTEX
  5
268
  8
__-2
  6
CONTINUOUS
 10
17.22032351859537
 20
4.129042380155306
 30
0.0
  0
VERTEX
  5
269
  8
__-2
  6
CONTINUOUS
 10
17.46782884221504
 20
4.191039236299963
 30
0.0
  0
VERTEX
  5
26A
  8
__-2
  6
CONTINUOUS
 10
17.72021911460012
 20
4.228477796599275
 30
0.0
  0
VERTEX
  5
26B
  8
__-2
  6
CONTINUOUS
 10
17.97506367945698
 20
4.240997507251564
 30
0.0
  0
VERTEX
  5
26C
  8
__-2
  6
CONTINUOUS
 10
18.22990824431384
 20
4.228477796599275
 30
0.0
  0
VERTEX
  5
26D
  8
__-2
  6
CONTINUOUS
 10
18.48229851669892
 20
4.191039236299963
 30
0.0
  0
VERTEX
  5
26E
  8
__-2
  6
CONTINUOUS
 10
18.72980384031859
 20
4.129042380155306
 30
0.0
  0
VERTEX
  5
26F
  8
__-2
  6
CONTINUOUS
 10
18.97004060360622
 20
4.043084291780907
 30
0.0
  0
VERTEX
  5
270
  8
__-2
  6
CONTINUOUS
 10
19.20069519520458
 20
3.933992794557284
 30
0.0
  0
VERTEX
  5
271
  8
__-2
  6
CONTINUOUS
 10
19.41954628530796
 20
3.802818499238177
 30
0.0
  0
VERTEX
  5
272
  8
__-2
  6
CONTINUOUS
 10
19.62448621828247
 20
3.650824685994674
 30
0.0
  0
VERTEX
  5
273
  8
__-2
  6
CONTINUOUS
 10
19.81354131054202
 20
3.47947513833658
 30
0.0
  0
VERTEX
  5
274
  8
__-2
  6
CONTINUOUS
 10
19.98489085820011
 20
3.290420046077033
 30
0.0
  0
VERTEX
  5
275
  8
__-2
  6
CONTINUOUS
 10
20.13688467144362
 20
3.085480113102519
 30
0.0
  0
VERTEX
  5
276
  8
__-2
  6
CONTINUOUS
 10
20.26805896676272
 20
2.866629022999145
 30
0.0
  0
VERTEX
  5
277
  8
__-2
  6
CONTINUOUS
 10
20.37715046398635
 20
2.635974431400783
 30
0.0
  0
VERTEX
  5
278
  8
__-2
  6
CONTINUOUS
 10
20.46310855236074
 20
2.395737668113149
 30
0.0
  0
VERTEX
  5
279
  8
__-2
  6
CONTINUOUS
 10
20.5251054085054
 20
2.148232344493479
 30
0.0
  0
VERTEX
  5
27A
  8
__-2
  6
CONTINUOUS
 10
20.56254396880471
 20
1.8958420721084
 30
0.0
  0
SEQEND
  5
27B
  8
__-2
  6
CONTINUOUS
  0
POLYLINE
  5
27C
  8
__-2
  6
DASHED2
 62
   251
 66
     1
 10
0.0
 20
0.0
 30
0.0
 70
   129
  0
VERTEX
  5
27D
  8
__-2
  6
DASHED2
 62
   251
 10
77.17506367945691
 20
1.640997507251541
 30
0.0
  0
VERTEX
  5
27E
  8
__-2
  6
DASHED2
 62
   251
 10
77.15483953148014
 20
1.229325517867349
 30
0.0
  0
VERTEX
  5
27F
  8
__-2
  6
DASHED2
 62
   251
 10
77.09436185715047
 20
0.8216181547837265
 30
0.0
  0
VERTEX
  5
280
  8
__-2
  6
DASHED2
 62
   251
 10
76.99421308953217
 20
0.4218018627826867
 30
0.0
  0
VERTEX
  5
281
  8
__-2
  6
DASHED2
 62
   251
 10
76.85535771600429
 20
0.0337270913180157
 30
0.0
  0
VERTEX
  5
282
  8
__-2
  6
DASHED2
 62
   251
 10
76.67913298971996
 20
-0.3388687874178313
 30
0.0
  0
VERTEX
  5
283
  8
__-2
  6
DASHED2
 62
   251
 10
76.46723605112754
 20
-0.6923974714310037
 30
0.0
  0
VERTEX
  5
284
  8
__-2
  6
DASHED2
 62
   251
 10
76.22170758358033
 20
-1.023454286236015
 30
0.0
  0
VERTEX
  5
285
  8
__-2
  6
DASHED2
 62
   251
 10
75.9449121604403
 20
-1.328850973732232
 30
0.0
  0
VERTEX
  5
286
  8
__-2
  6
DASHED2
 62
   251
 10
75.63951547294408
 20
-1.605646396872253
 30
0.0
  0
VERTEX
  5
287
  8
__-2
  6
DASHED2
 62
   251
 10
75.30845865813907
 20
-1.851174864419471
 30
0.0
  0
VERTEX
  5
288
  8
__-2
  6
DASHED2
 62
   251
 10
74.9549299741259
 20
-2.063071803011891
 30
0.0
  0
VERTEX
  5
289
  8
__-2
  6
DASHED2
 62
   251
 10
74.58233409539005
 20
-2.239296529296221
 30
0.0
  0
VERTEX
  5
28A
  8
__-2
  6
DASHED2
 62
   251
 10
74.19425932392538
 20
-2.378151902824106
 30
0.0
  0
VERTEX
  5
28B
  8
__-2
  6
DASHED2
 62
   251
 10
73.79444303192435
 20
-2.478300670442406
 30
0.0
  0
VERTEX
  5
28C
  8
__-2
  6
DASHED2
 62
   251
 10
73.38673566884071
 20
-2.538778344772071
 30
0.0
  0
VERTEX
  5
28D
  8
__-2
  6
DASHED2
 62
   251
 10
72.97506367945653
 20
-2.559002492748846
 30
0.0
  0
VERTEX
  5
28E
  8
__-2
  6
DASHED2
 62
   251
 10
72.56339169007234
 20
-2.538778344772071
 30
0.0
  0
VERTEX
  5
28F
  8
__-2
  6
DASHED2
 62
   251
 10
72.1556843269887
 20
-2.478300670442406
 30
0.0
  0
VERTEX
  5
290
  8
__-2
  6
DASHED2
 62
   251
 10
71.75586803498767
 20
-2.378151902824106
 30
0.0
  0
VERTEX
  5
291
  8
__-2
  6
DASHED2
 62
   251
 10
71.367793263523
 20
-2.239296529296221
 30
0.0
  0
VERTEX
  5
292
  8
__-2
  6
DASHED2
 62
   251
 10
70.99519738478715
 20
-2.063071803011891
 30
0.0
  0
VERTEX
  5
293
  8
__-2
  6
DASHED2
 62
   251
 10
70.64166870077398
 20
-1.851174864419471
 30
0.0
  0
VERTEX
  5
294
  8
__-2
  6
DASHED2
 62
   251
 10
70.31061188596897
 20
-1.605646396872253
 30
0.0
  0
VERTEX
  5
295
  8
__-2
  6
DASHED2
 62
   251
 10
70.00521519847275
 20
-1.328850973732232
 30
0.0
  0
VERTEX
  5
296
  8
__-2
  6
DASHED2
 62
   251
 10
69.72841977533272
 20
-1.023454286236015
 30
0.0
  0
VERTEX
  5
297
  8
__-2
  6
DASHED2
 62
   251
 10
69.48289130778551
 20
-0.6923974714310037
 30
0.0
  0
VERTEX
  5
298
  8
__-2
  6
DASHED2
 62
   251
 10
69.27099436919309
 20
-0.3388687874178313
 30
0.0
  0
VERTEX
  5
299
  8
__-2
  6
DASHED2
 62
   251
 10
69.09476964290876
 20
0.0337270913180157
 30
0.0
  0
VERTEX
  5
29A
  8
__-2
  6
DASHED2
 62
   251
 10
68.95591426938088
 20
0.4218018627826867
 30
0.0
  0
VERTEX
  5
29B
  8
__-2
  6
DASHED2
 62
   251
 10
68.85576550176258
 20
0.8216181547837265
 30
0.0
  0
VERTEX
  5
29C
  8
__-2
  6
DASHED2
 62
   251
 10
68.79528782743292
 20
1.229325517867349
 30
0.0
  0
VERTEX
  5
29D
  8
__-2
  6
DASHED2
 62
   251
 10
68.77506367945614
 20
1.640997507251541
 30
0.0
  0
VERTEX
  5
29E
  8
__-2
  6
DASHED2
 62
   251
 10
68.79528782743292
 20
2.052669496635733
 30
0.0
  0
VERTEX
  5
29F
  8
__-2
  6
DASHED2
 62
   251
 10
68.85576550176258
 20
2.460376859719355
 30
0.0
  0
VERTEX
  5
2A0
  8
__-2
  6
DASHED2
 62
   251
 10
68.95591426938088
 20
2.860193151720395
 30
0.0
  0
VERTEX
  5
2A1
  8
__-2
  6
DASHED2
 62
   251
 10
69.09476964290876
 20
3.248267923185066
 30
0.0
  0
VERTEX
  5
2A2
  8
__-2
  6
DASHED2
 62
   251
 10
69.27099436919309
 20
3.620863801920913
 30
0.0
  0
VERTEX
  5
2A3
  8
__-2
  6
DASHED2
 62
   251
 10
69.48289130778551
 20
3.974392485934085
 30
0.0
  0
VERTEX
  5
2A4
  8
__-2
  6
DASHED2
 62
   251
 10
69.72841977533272
 20
4.305449300739097
 30
0.0
  0
VERTEX
  5
2A5
  8
__-2
  6
DASHED2
 62
   251
 10
70.00521519847275
 20
4.610845988235313
 30
0.0
  0
VERTEX
  5
2A6
  8
__-2
  6
DASHED2
 62
   251
 10
70.31061188596897
 20
4.887641411375335
 30
0.0
  0
VERTEX
  5
2A7
  8
__-2
  6
DASHED2
 62
   251
 10
70.64166870077398
 20
5.133169878922552
 30
0.0
  0
VERTEX
  5
2A8
  8
__-2
  6
DASHED2
 62
   251
 10
70.99519738478715
 20
5.345066817514972
 30
0.0
  0
VERTEX
  5
2A9
  8
__-2
  6
DASHED2
 62
   251
 10
71.367793263523
 20
5.521291543799302
 30
0.0
  0
VERTEX
  5
2AA
  8
__-2
  6
DASHED2
 62
   251
 10
71.75586803498767
 20
5.660146917327188
 30
0.0
  0
VERTEX
  5
2AB
  8
__-2
  6
DASHED2
 62
   251
 10
72.1556843269887
 20
5.760295684945488
 30
0.0
  0
VERTEX
  5
2AC
  8
__-2
  6
DASHED2
 62
   251
 10
72.56339169007234
 20
5.820773359275153
 30
0.0
  0
VERTEX
  5
2AD
  8
__-2
  6
DASHED2
 62
   251
 10
72.97506367945653
 20
5.840997507251927
 30
0.0
  0
VERTEX
  5
2AE
  8
__-2
  6
DASHED2
 62
   251
 10
73.38673566884071
 20
5.820773359275153
 30
0.0
  0
VERTEX
  5
2AF
  8
__-2
  6
DASHED2
 62
   251
 10
73.79444303192435
 20
5.760295684945488
 30
0.0
  0
VERTEX
  5
2B0
  8
__-2
  6
DASHED2
 62
   251
 10
74.19425932392538
 20
5.660146917327188
 30
0.0
  0
VERTEX
  5
2B1
  8
__-2
  6
DASHED2
 62
   251
 10
74.58233409539005
 20
5.521291543799302
 30
0.0
  0
VERTEX
  5
2B2
  8
__-2
  6
DASHED2
 62
   251
 10
74.9549299741259
 20
5.345066817514972
 30
0.0
  0
VERTEX
  5
2B3
  8
__-2
  6
DASHED2
 62
   251
 10
75.30845865813907
 20
5.133169878922552
 30
0.0
  0
VERTEX
  5
2B4
  8
__-2
  6
DASHED2
 62
   251
 10
75.63951547294408
 20
4.887641411375335
 30
0.0
  0
VERTEX
  5
2B5
  8
__-2
  6
DASHED2
 62
   251
 10
75.9449121604403
 20
4.610845988235313
 30
0.0
  0
VERTEX
  5
2B6
  8
__-2
  6
DASHED2
 62
   251
 10
76.22170758358033
 20
4.305449300739097
 30
0.0
  0
VERTEX
  5
2B7
  8
__-2
  6
DASHED2
 62
   251
 10
76.46723605112754
 20
3.974392485934085
 30
0.0
  0
VERTEX
  5
2B8
  8
__-2
  6
DASHED2
 62
   251
 10
76.67913298971996
 20
3.620863801920913
 30
0.0
  0
VERTEX
  5
2B9
  8
__-2
  6
DASHED2
 62
   251
 10
76.85535771600429
 20
3.248267923185066
 30
0.0
  0
VERTEX
  5
2BA
  8
__-2
  6
DASHED2
 62
   251
 10
76.99421308953217
 20
2.860193151720395
 30
0.0
  0
VERTEX
  5
2BB
  8
__-2
  6
DASHED2
 62
   251
 10
77.09436185715047
 20
2.460376859719355
 30
0.0
  0
VERTEX
  5
2BC
  8
__-2
  6
DASHED2
 62
   251
 10
77.15483953148014
 20
2.052669496635733
 30
0.0
  0
SEQEND
  5
2BD
  8
__-2
  6
DASHED2
 62
   251
  0
POLYLINE
  5
2BE
  8
__-2
  6
DASHED2
 62
   251
 66
     1
 10
0.0
 20
0.0
 30
0.0
 70
   129
  0
VERTEX
  5
2BF
  8
__-2
  6
DASHED2
 62
   251
 10
22.17506367945748
 20
1.640997507251541
 30
0.0
  0
VERTEX
  5
2C0
  8
__-2
  6
DASHED2
 62
   251
 10
22.1548395314807
 20
1.229325517867337
 30
0.0
  0
VERTEX
  5
2C1
  8
__-2
  6
DASHED2
 62
   251
 10
22.09436185715104
 20
0.8216181547837043
 30
0.0
  0
VERTEX
  5
2C2
  8
__-2
  6
DASHED2
 62
   251
 10
21.99421308953274
 20
0.4218018627826539
 30
0.0
  0
VERTEX
  5
2C3
  8
__-2
  6
DASHED2
 62
   251
 10
21.85535771600485
 20
0.0337270913179721
 30
0.0
  0
VERTEX
  5
2C4
  8
__-2
  6
DASHED2
 62
   251
 10
21.67913298972051
 20
-0.3388687874178848
 30
0.0
  0
VERTEX
  5
2C5
  8
__-2
  6
DASHED2
 62
   251
 10
21.46723605112809
 20
-0.6923974714310668
 30
0.0
  0
VERTEX
  5
2C6
  8
__-2
  6
DASHED2
 62
   251
 10
21.22170758358086
 20
-1.023454286236087
 30
0.0
  0
VERTEX
  5
2C7
  8
__-2
  6
DASHED2
 62
   251
 10
20.94491216044083
 20
-1.328850973732313
 30
0.0
  0
VERTEX
  5
2C8
  8
__-2
  6
DASHED2
 62
   251
 10
20.63951547294461
 20
-1.605646396872341
 30
0.0
  0
VERTEX
  5
2C9
  8
__-2
  6
DASHED2
 62
   251
 10
20.30845865813959
 20
-1.851174864419565
 30
0.0
  0
VERTEX
  5
2CA
  8
__-2
  6
DASHED2
 62
   251
 10
19.9549299741264
 20
-2.063071803011991
 30
0.0
  0
VERTEX
  5
2CB
  8
__-2
  6
DASHED2
 62
   251
 10
19.58233409539055
 20
-2.239296529296326
 30
0.0
  0
VERTEX
  5
2CC
  8
__-2
  6
DASHED2
 62
   251
 10
19.19425932392587
 20
-2.378151902824215
 30
0.0
  0
VERTEX
  5
2CD
  8
__-2
  6
DASHED2
 62
   251
 10
18.79444303192482
 20
-2.478300670442517
 30
0.0
  0
VERTEX
  5
2CE
  8
__-2
  6
DASHED2
 62
   251
 10
18.38673566884118
 20
-2.538778344772184
 30
0.0
  0
VERTEX
  5
2CF
  8
__-2
  6
DASHED2
 62
   251
 10
17.97506367945698
 20
-2.559002492748959
 30
0.0
  0
VERTEX
  5
2D0
  8
__-2
  6
DASHED2
 62
   251
 10
17.56339169007278
 20
-2.538778344772184
 30
0.0
  0
VERTEX
  5
2D1
  8
__-2
  6
DASHED2
 62
   251
 10
17.15568432698914
 20
-2.478300670442517
 30
0.0
  0
VERTEX
  5
2D2
  8
__-2
  6
DASHED2
 62
   251
 10
16.75586803498809
 20
-2.378151902824215
 30
0.0
  0
VERTEX
  5
2D3
  8
__-2
  6
DASHED2
 62
   251
 10
16.36779326352341
 20
-2.239296529296326
 30
0.0
  0
VERTEX
  5
2D4
  8
__-2
  6
DASHED2
 62
   251
 10
15.99519738478755
 20
-2.063071803011991
 30
0.0
  0
VERTEX
  5
2D5
  8
__-2
  6
DASHED2
 62
   251
 10
15.64166870077437
 20
-1.851174864419565
 30
0.0
  0
VERTEX
  5
2D6
  8
__-2
  6
DASHED2
 62
   251
 10
15.31061188596935
 20
-1.605646396872341
 30
0.0
  0
VERTEX
  5
2D7
  8
__-2
  6
DASHED2
 62
   251
 10
15.00521519847313
 20
-1.328850973732313
 30
0.0
  0
VERTEX
  5
2D8
  8
__-2
  6
DASHED2
 62
   251
 10
14.7284197753331
 20
-1.023454286236087
 30
0.0
  0
VERTEX
  5
2D9
  8
__-2
  6
DASHED2
 62
   251
 10
14.48289130778587
 20
-0.6923974714310668
 30
0.0
  0
VERTEX
  5
2DA
  8
__-2
  6
DASHED2
 62
   251
 10
14.27099436919345
 20
-0.3388687874178848
 30
0.0
  0
VERTEX
  5
2DB
  8
__-2
  6
DASHED2
 62
   251
 10
14.09476964290911
 20
0.0337270913179721
 30
0.0
  0
VERTEX
  5
2DC
  8
__-2
  6
DASHED2
 62
   251
 10
13.95591426938122
 20
0.4218018627826539
 30
0.0
  0
VERTEX
  5
2DD
  8
__-2
  6
DASHED2
 62
   251
 10
13.85576550176292
 20
0.8216181547837043
 30
0.0
  0
VERTEX
  5
2DE
  8
__-2
  6
DASHED2
 62
   251
 10
13.79528782743326
 20
1.229325517867337
 30
0.0
  0
VERTEX
  5
2DF
  8
__-2
  6
DASHED2
 62
   251
 10
13.77506367945648
 20
1.640997507251541
 30
0.0
  0
VERTEX
  5
2E0
  8
__-2
  6
DASHED2
 62
   251
 10
13.79528782743326
 20
2.052669496635744
 30
0.0
  0
VERTEX
  5
2E1
  8
__-2
  6
DASHED2
 62
   251
 10
13.85576550176292
 20
2.460376859719378
 30
0.0
  0
VERTEX
  5
2E2
  8
__-2
  6
DASHED2
 62
   251
 10
13.95591426938122
 20
2.860193151720428
 30
0.0
  0
VERTEX
  5
2E3
  8
__-2
  6
DASHED2
 62
   251
 10
14.09476964290911
 20
3.248267923185109
 30
0.0
  0
VERTEX
  5
2E4
  8
__-2
  6
DASHED2
 62
   251
 10
14.27099436919345
 20
3.620863801920966
 30
0.0
  0
VERTEX
  5
2E5
  8
__-2
  6
DASHED2
 62
   251
 10
14.48289130778587
 20
3.974392485934148
 30
0.0
  0
VERTEX
  5
2E6
  8
__-2
  6
DASHED2
 62
   251
 10
14.7284197753331
 20
4.305449300739169
 30
0.0
  0
VERTEX
  5
2E7
  8
__-2
  6
DASHED2
 62
   251
 10
15.00521519847313
 20
4.610845988235394
 30
0.0
  0
VERTEX
  5
2E8
  8
__-2
  6
DASHED2
 62
   251
 10
15.31061188596935
 20
4.887641411375423
 30
0.0
  0
VERTEX
  5
2E9
  8
__-2
  6
DASHED2
 62
   251
 10
15.64166870077437
 20
5.133169878922647
 30
0.0
  0
VERTEX
  5
2EA
  8
__-2
  6
DASHED2
 62
   251
 10
15.99519738478755
 20
5.345066817515074
 30
0.0
  0
VERTEX
  5
2EB
  8
__-2
  6
DASHED2
 62
   251
 10
16.36779326352341
 20
5.521291543799407
 30
0.0
  0
VERTEX
  5
2EC
  8
__-2
  6
DASHED2
 62
   251
 10
16.75586803498809
 20
5.660146917327297
 30
0.0
  0
VERTEX
  5
2ED
  8
__-2
  6
DASHED2
 62
   251
 10
17.15568432698914
 20
5.760295684945599
 30
0.0
  0
VERTEX
  5
2EE
  8
__-2
  6
DASHED2
 62
   251
 10
17.56339169007278
 20
5.820773359275266
 30
0.0
  0
VERTEX
  5
2EF
  8
__-2
  6
DASHED2
 62
   251
 10
17.97506367945698
 20
5.840997507252041
 30
0.0
  0
VERTEX
  5
2F0
  8
__-2
  6
DASHED2
 62
   251
 10
18.38673566884118
 20
5.820773359275266
 30
0.0
  0
VERTEX
  5
2F1
  8
__-2
  6
DASHED2
 62
   251
 10
18.79444303192482
 20
5.760295684945599
 30
0.0
  0
VERTEX
  5
2F2
  8
__-2
  6
DASHED2
 62
   251
 10
19.19425932392587
 20
5.660146917327297
 30
0.0
  0
VERTEX
  5
2F3
  8
__-2
  6
DASHED2
 62
   251
 10
19.58233409539055
 20
5.521291543799407
 30
0.0
  0
VERTEX
  5
2F4
  8
__-2
  6
DASHED2
 62
   251
 10
19.9549299741264
 20
5.345066817515074
 30
0.0
  0
VERTEX
  5
2F5
  8
__-2
  6
DASHED2
 62
   251
 10
20.30845865813959
 20
5.133169878922647
 30
0.0
  0
VERTEX
  5
2F6
  8
__-2
  6
DASHED2
 62
   251
 10
20.63951547294461
 20
4.887641411375423
 30
0.0
  0
VERTEX
  5
2F7
  8
__-2
  6
DASHED2
 62
   251
 10
20.94491216044083
 20
4.610845988235394
 30
0.0
  0
VERTEX
  5
2F8
  8
__-2
  6
DASHED2
 62
   251
 10
21.22170758358086
 20
4.305449300739169
 30
0.0
  0
VERTEX
  5
2F9
  8
__-2
  6
DASHED2
 62
   251
 10
21.46723605112809
 20
3.974392485934148
 30
0.0
  0
VERTEX
  5
2FA
  8
__-2
  6
DASHED2
 62
   251
 10
21.67913298972051
 20
3.620863801920966
 30
0.0
  0
VERTEX
  5
2FB
  8
__-2
  6
DASHED2
 62
   251
 10
21.85535771600485
 20
3.248267923185109
 30
0.0
  0
VERTEX
  5
2FC
  8
__-2
  6
DASHED2
 62
   251
 10
21.99421308953274
 20
2.860193151720428
 30
0.0
  0
VERTEX
  5
2FD
  8
__-2
  6
DASHED2
 62
   251
 10
22.09436185715104
 20
2.460376859719378
 30
0.0
  0
VERTEX
  5
2FE
  8
__-2
  6
DASHED2
 62
   251
 10
22.1548395314807
 20
2.052669496635744
 30
0.0
  0
SEQEND
  5
2FF
  8
__-2
  6
DASHED2
 62
   251
  0
LINE
  5
300
  8
__-2
  6
CONTINUOUS
 10
82.97506367945675
 20
13.64099750725245
 30
0.0
 11
82.97506367945675
 21
-10.85900249274846
 31
0.0
  0
ARC
  5
301
  8
__-2
  6
CONTINUOUS
 10
81.47506367945674
 20
6.140997507252467
 30
0.0
 40
1.500000000000017
 50
270.0000000000005
 51
359.9999999999993
  0
ARC
  5
302
  8
__-2
  6
CONTINUOUS
 10
82.47506367945677
 20
-10.85900249274847
 30
0.0
 40
0.4999999999999929
 50
269.9999999999984
 51
0.0000000000007958
  0
ARC
  5
303
  8
__-2
  6
CONTINUOUS
 10
8.475063679458119
 20
-10.85900249274846
 30
0.0
 40
0.5000000000000018
 50
180.0000000000002
 51
269.9999999999998
  0
ENDBLK
  5
A9
  8
0
  0
BLOCK
  8
0
  2
____-13
 70
     0
 10
0.0
 20
0.0
 30
0.0
  3
____-13
  1

  0
TEXT
  5
304
  8
__-2
 62
     7
 10
-65.45830557156194
 20
-44.4319945332246
 30
0.0
 40
2.124016203703704
  1
25
 50
90.0
  7
______MEDIUM
 11
-67.58232177526564
 21
-44.4319945332246
 31
0.0
 73
     3
  0
ENDBLK
  5
AD
  8
0
  0
BLOCK
  8
0
  2
____-14
 70
     0
 10
0.0
 20
0.0
 30
0.0
  3
____-14
  1

  0
LINE
  5
305
  8
__-2
  6
CONTINUOUS
 62
     7
 10
-52.73675001600643
 20
-30.36516510614081
 30
0.0
 11
-62.73675001600643
 21
-30.36516510614081
 31
0.0
  0
LINE
  5
306
  8
__-2
  6
CONTINUOUS
 62
     7
 10
-52.73675001600643
 20
-55.36516510614172
 30
0.0
 11
-62.73675001600643
 21
-55.36516510614172
 31
0.0
  0
LINE
  5
307
  8
__-2
  6
CONTINUOUS
 62
     7
 10
-62.73675001600643
 20
-30.36516510614081
 30
0.0
 11
-62.73675001600643
 21
-55.36516510614172
 31
0.0
  0
CIRCLE
  5
308
  8
__-2
  6
CONTINUOUS
 62
     7
 10
-62.73675001600643
 20
-30.36516510614081
 30
0.0
 40
0.2999816894531264
  0
CIRCLE
  5
309
  8
__-2
  6
CONTINUOUS
 62
     7
 10
-62.73675001600643
 20
-55.36516510614172
 30
0.0
 40
0.2999816894531264
  0
INSERT
  5
30A
  8
__-2
 62
     7
  2
____-13
 10
0.0
 20
0.0
 30
0.0
  0
ENDBLK
  5
B0
  8
0
  0
BLOCK
  8
0
  2
____-15
 70
     0
 10
0.0
 20
0.0
 30
0.0
  3
____-15
  1

  0
TEXT
  5
30B
  8
__-2
 62
     7
 10
-11.80357944309111
 20
-7.643609550585252
 30
0.0
 40
2.124016203703704
  1
75
  7
______MEDIUM
 11
-11.80357944309111
 21
-5.519593346881548
 31
0.0
 73
     3
  0
ENDBLK
  5
B3
  8
0
  0
BLOCK
  8
0
  2
____-16
 70
     0
 10
0.0
 20
0.0
 30
0.0
  3
____-16
  1

  0
LINE
  5
30C
  8
__-2
  6
CONTINUOUS
 62
     7
 10
27.26324998399221
 20
-25.36516510614081
 30
0.0
 11
27.26324998399221
 21
-10.36516510614081
 31
0.0
  0
LINE
  5
30D
  8
__-2
  6
CONTINUOUS
 62
     7
 10
-47.73675001600779
 20
-25.36516510614081
 30
0.0
 11
-47.73675001600779
 21
-10.36516510614081
 31
0.0
  0
LINE
  5
30E
  8
__-2
  6
CONTINUOUS
 62
     7
 10
27.26324998399221
 20
-10.36516510614081
 30
0.0
 11
-47.73675001600779
 21
-10.36516510614081
 31
0.0
  0
CIRCLE
  5
30F
  8
__-2
  6
CONTINUOUS
 62
     7
 10
27.26324998399221
 20
-10.36516510614081
 30
0.0
 40
0.2999816894531264
  0
CIRCLE
  5
310
  8
__-2
  6
CONTINUOUS
 62
     7
 10
-47.73675001600779
 20
-10.36516510614081
 30
0.0
 40
0.2999816894531264
  0
INSERT
  5
311
  8
__-2
 62
     7
  2
____-15
 10
0.0
 20
0.0
 30
0.0
  0
ENDBLK
  5
B6
  8
0
  0
BLOCK
  8
0
  2
____-17
 70
     0
 10
0.0
 20
0.0
 30
0.0
  3
____-17
  1

  0
TEXT
  5
312
  8
__-2
 62
     7
 10
-44.30357944309065
 20
-17.64360955058525
 30
0.0
 40
2.124016203703704
  1
10
  7
______MEDIUM
 11
-44.30357944309065
 21
-15.51959334688155
 31
0.0
 73
     3
  0
ENDBLK
  5
B9
  8
0
  0
BLOCK
  8
0
  2
____-18
 70
     0
 10
0.0
 20
0.0
 30
0.0
  3
____-18
  1

  0
LINE
  5
313
  8
__-2
  6
CONTINUOUS
 62
     7
 10
-37.73675001600779
 20
-25.36516510614081
 30
0.0
 11
-37.73675001600779
 21
-20.36516510614081
 31
0.0
  0
LINE
  5
314
  8
__-2
  6
CONTINUOUS
 62
     7
 10
-47.73675001600688
 20
-25.36516510614081
 30
0.0
 11
-47.73675001600688
 21
-20.36516510614081
 31
0.0
  0
LINE
  5
315
  8
__-2
  6
CONTINUOUS
 62
     7
 10
-37.73675001600779
 20
-20.36516510614081
 30
0.0
 11
-47.73675001600688
 21
-20.36516510614081
 31
0.0
  0
CIRCLE
  5
316
  8
__-2
  6
CONTINUOUS
 62
     7
 10
-37.73675001600779
 20
-20.36516510614081
 30
0.0
 40
0.2999816894531264
  0
CIRCLE
  5
317
  8
__-2
  6
CONTINUOUS
 62
     7
 10
-47.73675001600688
 20
-20.36516510614081
 30
0.0
 40
0.2999816894531264
  0
INSERT
  5
318
  8
__-2
 62
     7
  2
____-17
 10
0.0
 20
0.0
 30
0.0
  0
ENDBLK
  5
BC
  8
0
  0
BLOCK
  8
0
  2
____-19
 70
     0
 10
0.0
 20
0.0
 30
0.0
  3
____-19
  1

  0
TEXT
  5
319
  8
__-2
 62
     7
 10
-11.80357944309145
 20
-17.64360955058525
 30
0.0
 40
2.124016203703704
  1
55
  7
______MEDIUM
 11
-11.80357944309145
 21
-15.51959334688155
 31
0.0
 73
     3
  0
ENDBLK
  5
BF
  8
0
  0
BLOCK
  8
0
  2
____-20
 70
     0
 10
0.0
 20
0.0
 30
0.0
  3
____-20
  1

  0
LINE
  5
31A
  8
__-2
  6
CONTINUOUS
 62
     7
 10
-37.73675001600813
 20
-25.36516510614081
 30
0.0
 11
-37.73675001600813
 21
-20.36516510614081
 31
0.0
  0
LINE
  5
31B
  8
__-2
  6
CONTINUOUS
 62
     7
 10
17.26324998399187
 20
-25.36516510614081
 30
0.0
 11
17.26324998399187
 21
-20.36516510614081
 31
0.0
  0
LINE
  5
31C
  8
__-2
  6
CONTINUOUS
 62
     7
 10
-37.73675001600813
 20
-20.36516510614081
 30
0.0
 11
17.26324998399187
 21
-20.36516510614081
 31
0.0
  0
CIRCLE
  5
31D
  8
__-2
  6
CONTINUOUS
 62
     7
 10
-37.73675001600813
 20
-20.36516510614081
 30
0.0
 40
0.2999816894531264
  0
CIRCLE
  5
31E
  8
__-2
  6
CONTINUOUS
 62
     7
 10
17.26324998399187
 20
-20.36516510614081
 30
0.0
 40
0.2999816894531264
  0
INSERT
  5
31F
  8
__-2
 62
     7
  2
____-19
 10
0.0
 20
0.0
 30
0.0
  0
ENDBLK
  5
C2
  8
0
  0
BLOCK
  8
0
  2
____-21
 70
     0
 10
0.0
 20
0.0
 30
0.0
  3
____-21
  1

  0
TEXT
  5
320
  8
__-2
 62
     7
 10
20.69642055690844
 20
-17.64360955058525
 30
0.0
 40
2.124016203703704
  1
10
  7
______MEDIUM
 11
20.69642055690844
 21
-15.51959334688155
 31
0.0
 73
     3
  0
ENDBLK
  5
C5
  8
0
  0
BLOCK
  8
0
  2
____-22
 70
     0
 10
0.0
 20
0.0
 30
0.0
  3
____-22
  1

  0
LINE
  5
321
  8
__-2
  6
CONTINUOUS
 62
     7
 10
27.26324998399198
 20
-25.36516510614081
 30
0.0
 11
27.26324998399198
 21
-20.36516510614081
 31
0.0
  0
LINE
  5
322
  8
__-2
  6
CONTINUOUS
 62
     7
 10
17.26324998399153
 20
-25.36516510614081
 30
0.0
 11
17.26324998399153
 21
-20.36516510614081
 31
0.0
  0
LINE
  5
323
  8
__-2
  6
CONTINUOUS
 62
     7
 10
27.26324998399198
 20
-20.36516510614081
 30
0.0
 11
17.26324998399153
 21
-20.36516510614081
 31
0.0
  0
CIRCLE
  5
324
  8
__-2
  6
CONTINUOUS
 62
     7
 10
27.26324998399198
 20
-20.36516510614081
 30
0.0
 40
0.2999816894531264
  0
CIRCLE
  5
325
  8
__-2
  6
CONTINUOUS
 62
     7
 10
17.26324998399153
 20
-20.36516510614081
 30
0.0
 40
0.2999816894531264
  0
INSERT
  5
326
  8
__-2
 62
     7
  2
____-21
 10
0.0
 20
0.0
 30
0.0
  0
ENDBLK
  5
C8
  8
0
  0
BLOCK
  8
0
  2
____-23
 70
     0
 10
0.0
 20
0.0
 30
0.0
  3
____-23
  1

  0
LINE
  5
327
  8
__-2
  6
CONTINUOUS
 62
     7
 10
-19.50338583017678
 20
-62.14984209796835
 30
0.0
 11
-26.65387342155876
 21
-62.14984209796835
 31
0.0
  0
LINE
  5
328
  8
__-2
  6
CONTINUOUS
 62
     7
 10
-26.65387342155876
 20
-62.14984209796835
 30
0.0
 11
-36.56861638403546
 21
-44.97700354297274
 31
0.0
  0
TEXT
  5
329
  8
__-2
 62
     7
 10
-18.50338583017678
 20
-62.68606432019056
 30
0.0
 40
2.124016203703704
  1
2-Φ5.0×8.0皿
  7
______MEDIUM
 11
-18.50338583017678
 21
-60.56204811648686
 31
0.0
 73
     3
  0
ENDBLK
  5
CB
  8
0
  0
BLOCK
  8
0
  2
____-24
 70
     0
 10
0.0
 20
0.0
 30
0.0
  3
____-24
  1

  0
TEXT
  5
32A
  8
__-1
 62
     7
 10
35.19275854060848
 20
-40.32739822269773
 30
0.0
 40
2.124016203703704
  1
R 1.5
  7
______MEDIUM
 11
35.19275854060848
 21
-38.20338201899403
 31
0.0
 73
     3
  0
ENDBLK
  5
CE
  8
0
  0
BLOCK
  8
0
  2
____-25
 70
     0
 10
0.0
 20
0.0
 30
0.0
  3
____-25
  1

  0
LINE
  5
32B
  8
__-1
  6
CONTINUOUS
 62
     7
 10
26.82391015577181
 20
-38.92582527792063
 30
0.0
 11
29.19275854060848
 21
-42.14895377825329
 31
0.0
  0
CIRCLE
  5
32C
  8
__-1
  6
CONTINUOUS
 62
     7
 10
26.82391015577181
 20
-38.92582527792063
 30
0.0
 40
0.2999729441777177
  0
LINE
  5
32D
  8
__-1
  6
CONTINUOUS
 62
     7
 10
29.19275854060848
 20
-42.14895377825329
 30
0.0
 11
41.75497642255291
 21
-42.14895377825329
 31
0.0
  0
INSERT
  5
32E
  8
__-1
 62
     7
  2
____-24
 10
0.0
 20
0.0
 30
0.0
  0
ENDBLK
  5
D1
  8
0
  0
BLOCK
  8
0
  2
____-26
 70
     0
 10
0.0
 20
0.0
 30
0.0
  3
____-26
  1

  0
TEXT
  5
32F
  8
__-1
 62
     7
 10
36.16936148777262
 20
-55.98209794338238
 30
0.0
 40
2.124016203703704
  1
R 0.5
  7
______MEDIUM
 11
36.16936148777262
 21
-53.85808173967867
 31
0.0
 73
     3
  0
ENDBLK
  5
D4
  8
0
  0
BLOCK
  8
0
  2
____-27
 70
     0
 10
0.0
 20
0.0
 30
0.0
  3
____-27
  1

  0
LINE
  5
330
  8
__-1
  6
CONTINUOUS
 62
     7
 10
27.11680337458526
 20
-55.21871849673499
 30
0.0
 11
30.16936148777262
 21
-57.80365349893794
 31
0.0
  0
CIRCLE
  5
331
  8
__-1
  6
CONTINUOUS
 62
     7
 10
27.11680337458526
 20
-55.21871849673499
 30
0.0
 40
0.2999638420425548
  0
LINE
  5
332
  8
__-1
  6
CONTINUOUS
 62
     7
 10
30.16936148777262
 20
-57.80365349893794
 30
0.0
 11
42.73157936971705
 21
-57.80365349893794
 31
0.0
  0
INSERT
  5
333
  8
__-1
 62
     7
  2
____-26
 10
0.0
 20
0.0
 30
0.0
  0
ENDBLK
  5
D7
  8
0
  0
BLOCK
  8
0
  2
____-28
 70
     0
 10
0.0
 20
0.0
 30
0.0
  3
____-28
  1

  0
INSERT
  5
334
  8
__-2
 62
     7
  2
____-14
 10
0.0
 20
0.0
 30
0.0
  0
INSERT
  5
335
  8
__-2
 62
     7
  2
____-16
 10
0.0
 20
0.0
 30
0.0
  0
INSERT
  5
336
  8
__-2
 62
     7
  2
____-18
 10
0.0
 20
0.0
 30
0.0
  0
INSERT
  5
337
  8
__-2
 62
     7
  2
____-20
 10
0.0
 20
0.0
 30
0.0
  0
INSERT
  5
338
  8
__-2
 62
     7
  2
____-22
 10
0.0
 20
0.0
 30
0.0
  0
TEXT
  5
339
  8
__-2
 62
     7
 10
-15.88119446045224
 20
-29.51849843947414
 30
0.0
 40
2.124016203703704
  1
▽化粧面
  7
______MEDIUM
 11
-15.88119446045224
 21
-27.39448223577044
 31
0.0
 73
     3
  0
INSERT
  5
33A
  8
__-2
 62
     7
  2
____-23
 10
0.0
 20
0.0
 30
0.0
  0
INSERT
  5
33B
  8
__-1
 62
     7
  2
____-25
 10
0.0
 20
0.0
 30
0.0
  0
INSERT
  5
33C
  8
__-1
 62
     7
  2
____-27
 10
0.0
 20
0.0
 30
0.0
  0
ENDBLK
  5
DA
  8
0
  0
BLOCK
  8
0
  2
___-3_3D
 70
     0
 10
0.0
 20
0.0
 30
0.0
  3
___-3_3D
  1

  0
LINE
  5
33D
  8
__-2
  6
CONTINUOUS
 10
138.6270582264993
 20
12.44099750725241
 30
0.0
 11
170.3351174057403
 21
12.44099750725241
 31
0.0
  0
LINE
  5
33E
  8
__-2
  6
CONTINUOUS
 10
169.6351174057402
 20
13.64099750725234
 30
0.0
 11
139.1851174057415
 21
13.64099750725245
 31
0.0
  0
ARC
  5
33F
  8
__-2
  6
CONTINUOUS
 10
139.1851174057406
 20
11.74099750725219
 30
0.0
 40
1.900000000000144
 50
89.99999999997773
 51
179.9999999999949
  0
LINE
  5
340
  8
__-2
  6
CONTINUOUS
 10
171.5351174057412
 20
11.7409975072519
 30
0.0
 11
171.5351174057403
 21
-11.35900249274846
 31
0.0
  0
LINE
  5
341
  8
__-2
  6
CONTINUOUS
 10
171.5351174057403
 20
-11.35900249274846
 30
0.0
 11
170.3351174057403
 21
-11.35900249274846
 31
0.0
  0
LINE
  5
342
  8
__-2
  6
CONTINUOUS
 10
170.3351174057403
 20
-11.35900249274846
 30
0.0
 11
170.3351174057403
 21
12.44099750725241
 31
0.0
  0
ARC
  5
343
  8
__-2
  6
CONTINUOUS
 10
169.6351174057409
 20
11.74099750725229
 30
0.0
 40
1.900000000000034
 50
359.9999999999746
 51
90.00000000002228
  0
LINE
  5
344
  8
__-2
  6
CONTINUOUS
 10
162.8636384013444
 20
1.640997507251541
 30
0.0
 11
178.4610254848485
 21
1.640997507251541
 31
0.0
  0
LINE
  5
345
  8
__-2
  6
CONTINUOUS
 10
137.2851174057405
 20
11.7409975072519
 30
0.0
 11
136.0331958427114
 21
4.64099750725245
 31
0.0
  0
LINE
  5
346
  8
__-2
  6
CONTINUOUS
 10
138.6270582264993
 20
12.44099750725242
 30
0.0
 11
137.2149651463261
 21
4.43261969405228
 31
0.0
  0
LINE
  5
347
  8
__-2
  6
CONTINUOUS
 10
136.0331958427105
 20
4.64099750725245
 30
0.0
 11
137.2149651463261
 21
4.432619694052145
 31
0.0
  0
LINE
  5
348
  8
__-2
  6
DASHED2
 62
   251
 10
171.5351174057405
 20
-2.559002492749187
 30
0.0
 11
170.3351174057403
 21
-1.359002492748995
 31
0.0
  0
LINE
  5
349
  8
__-2
  6
DASHED2
 62
   251
 10
171.5351174057409
 20
5.840997507252268
 30
0.0
 11
170.3351174057403
 21
4.640997507251624
 31
0.0
  0
ENDBLK
  5
DD
  8
0
  0
BLOCK
  8
0
  2
____-29
 70
     0
 10
0.0
 20
0.0
 30
0.0
  3
____-29
  1

  0
TEXT
  5
34A
  8
__-2
 62
     7
 10
277.0463961367371
 20
-7.64360955058525
 30
0.0
 40
2.124016203703704
  1
35.5
  7
______MEDIUM
 11
277.0463961367371
 21
-5.519593346881546
 31
0.0
 73
     3
  0
ENDBLK
  5
E1
  8
0
  0
BLOCK
  8
0
  2
____-30
 70
     0
 10
0.0
 20
0.0
 30
0.0
  3
____-30
  1

  0
LINE
  5
34B
  8
__-2
  6
CONTINUOUS
 62
     7
 10
297.5127811804048
 20
-25.36516510614081
 30
0.0
 11
297.5127811804048
 21
-10.36516510614081
 31
0.0
  0
LINE
  5
34C
  8
__-2
  6
CONTINUOUS
 62
     7
 10
262.010859617375
 20
-25.36516510614081
 30
0.0
 11
262.010859617375
 21
-10.36516510614081
 31
0.0
  0
LINE
  5
34D
  8
__-2
  6
CONTINUOUS
 62
     7
 10
297.5127811804048
 20
-10.36516510614081
 30
0.0
 11
262.010859617375
 21
-10.36516510614081
 31
0.0
  0
CIRCLE
  5
34E
  8
__-2
  6
CONTINUOUS
 62
     7
 10
297.5127811804048
 20
-10.36516510614081
 30
0.0
 40
0.2999816894531477
  0
CIRCLE
  5
34F
  8
__-2
  6
CONTINUOUS
 62
     7
 10
262.010859617375
 20
-10.36516510614081
 30
0.0
 40
0.2999816894531477
  0
INSERT
  5
350
  8
__-2
 62
     7
  2
____-29
 10
0.0
 20
0.0
 30
0.0
  0
ENDBLK
  5
E4
  8
0
  0
BLOCK
  8
0
  2
____-31
 70
     0
 10
0.0
 20
0.0
 30
0.0
  3
____-31
  1

  0
TEXT
  5
351
  8
__-2
 62
     7
 10
319.5412256248493
 20
-44.4319945332246
 30
0.0
 40
2.124016203703704
  1
25
 50
90.0
  7
______MEDIUM
 11
317.4172094211456
 21
-44.4319945332246
 31
0.0
 73
     3
  0
ENDBLK
  5
E7
  8
0
  0
BLOCK
  8
0
  2
____-32
 70
     0
 10
0.0
 20
0.0
 30
0.0
  3
____-32
  1

  0
LINE
  5
352
  8
__-2
  6
CONTINUOUS
 62
     7
 10
307.2627811804048
 20
-55.36516510614172
 30
0.0
 11
322.2627811804048
 21
-55.36516510614172
 31
0.0
  0
LINE
  5
353
  8
__-2
  6
CONTINUOUS
 62
     7
 10
307.2627811804048
 20
-30.36516510614081
 30
0.0
 11
322.2627811804048
 21
-30.36516510614081
 31
0.0
  0
LINE
  5
354
  8
__-2
  6
CONTINUOUS
 62
     7
 10
322.2627811804048
 20
-55.36516510614172
 30
0.0
 11
322.2627811804048
 21
-30.36516510614081
 31
0.0
  0
CIRCLE
  5
355
  8
__-2
  6
CONTINUOUS
 62
     7
 10
322.2627811804048
 20
-55.36516510614172
 30
0.0
 40
0.2999816894531477
  0
CIRCLE
  5
356
  8
__-2
  6
CONTINUOUS
 62
     7
 10
322.2627811804048
 20
-30.36516510614081
 30
0.0
 40
0.2999816894531477
  0
INSERT
  5
357
  8
__-2
 62
     7
  2
____-31
 10
0.0
 20
0.0
 30
0.0
  0
ENDBLK
  5
EA
  8
0
  0
BLOCK
  8
0
  2
____-33
 70
     0
 10
0.0
 20
0.0
 30
0.0
  3
____-33
  1

  0
TEXT
  5
358
  8
__-2
 62
     7
 10
309.5412256248493
 20
-37.9319945332246
 30
0.0
 40
2.124016203703704
  1
12
 50
90.0
  7
______MEDIUM
 11
307.4172094211456
 21
-37.9319945332246
 31
0.0
 73
     3
  0
ENDBLK
  5
ED
  8
0
  0
BLOCK
  8
0
  2
____-34
 70
     0
 10
0.0
 20
0.0
 30
0.0
  3
____-34
  1

  0
LINE
  5
359
  8
__-2
  6
CONTINUOUS
 62
     7
 10
307.2627811804048
 20
-42.36516510614172
 30
0.0
 11
312.2627811804048
 21
-42.36516510614172
 31
0.0
  0
LINE
  5
35A
  8
__-2
  6
CONTINUOUS
 62
     7
 10
307.2627811804048
 20
-30.36516510614081
 30
0.0
 11
312.2627811804048
 21
-30.36516510614081
 31
0.0
  0
LINE
  5
35B
  8
__-2
  6
CONTINUOUS
 62
     7
 10
312.2627811804048
 20
-42.36516510614172
 30
0.0
 11
312.2627811804048
 21
-30.36516510614081
 31
0.0
  0
CIRCLE
  5
35C
  8
__-2
  6
CONTINUOUS
 62
     7
 10
312.2627811804048
 20
-42.36516510614172
 30
0.0
 40
0.2999816894531477
  0
CIRCLE
  5
35D
  8
__-2
  6
CONTINUOUS
 62
     7
 10
312.2627811804048
 20
-30.36516510614081
 30
0.0
 40
0.2999816894531477
  0
INSERT
  5
35E
  8
__-2
 62
     7
  2
____-33
 10
0.0
 20
0.0
 30
0.0
  0
ENDBLK
  5
F0
  8
0
  0
BLOCK
  8
0
  2
____-35
 70
     0
 10
0.0
 20
0.0
 30
0.0
  3
____-35
  1

  0
TEXT
  5
35F
  8
__-2
 62
     7
 10
309.5412256248493
 20
-50.43199453322505
 30
0.0
 40
2.124016203703704
  1
13
 50
90.0
  7
______MEDIUM
 11
307.4172094211456
 21
-50.43199453322505
 31
0.0
 73
     3
  0
ENDBLK
  5
F3
  8
0
  0
BLOCK
  8
0
  2
____-36
 70
     0
 10
0.0
 20
0.0
 30
0.0
  3
____-36
  1

  0
LINE
  5
360
  8
__-2
  6
CONTINUOUS
 62
     7
 10
307.2627811804048
 20
-42.36516510614172
 30
0.0
 11
312.2627811804048
 21
-42.36516510614172
 31
0.0
  0
LINE
  5
361
  8
__-2
  6
CONTINUOUS
 62
     7
 10
307.2627811804048
 20
-55.36516510614172
 30
0.0
 11
312.2627811804048
 21
-55.36516510614172
 31
0.0
  0
LINE
  5
362
  8
__-2
  6
CONTINUOUS
 62
     7
 10
312.2627811804048
 20
-42.36516510614172
 30
0.0
 11
312.2627811804048
 21
-55.36516510614172
 31
0.0
  0
CIRCLE
  5
363
  8
__-2
  6
CONTINUOUS
 62
     7
 10
312.2627811804048
 20
-42.36516510614172
 30
0.0
 40
0.2999816894531477
  0
CIRCLE
  5
364
  8
__-2
  6
CONTINUOUS
 62
     7
 10
312.2627811804048
 20
-55.36516510614172
 30
0.0
 40
0.2999816894531477
  0
INSERT
  5
365
  8
__-2
 62
     7
  2
____-35
 10
0.0
 20
0.0
 30
0.0
  0
ENDBLK
  5
F6
  8
0
  0
BLOCK
  8
0
  2
____-37
 70
     0
 10
0.0
 20
0.0
 30
0.0
  3
____-37
  1

  0
TEXT
  5
366
  8
__-2
 62
     7
 10
244.2893040618204
 20
-35.64857981968247
 30
0.0
 40
2.124016203703704
  1
9
 50
90.0
  7
______MEDIUM
 11
242.1652878581167
 21
-35.64857981968247
 31
0.0
 73
     3
  0
ENDBLK
  5
F9
  8
0
  0
BLOCK
  8
0
  2
____-38
 70
     0
 10
0.0
 20
0.0
 30
0.0
  3
____-38
  1

  0
LINE
  5
367
  8
__-2
  6
CONTINUOUS
 62
     7
 10
257.010859617376
 20
-39.36516510614081
 30
0.0
 11
247.010859617376
 21
-39.36516510614081
 31
0.0
  0
LINE
  5
368
  8
__-2
  6
CONTINUOUS
 62
     7
 10
257.010859617376
 20
-30.36516510614081
 30
0.0
 11
247.010859617376
 21
-30.36516510614081
 31
0.0
  0
LINE
  5
369
  8
__-2
  6
CONTINUOUS
 62
     7
 10
247.010859617376
 20
-39.36516510614081
 30
0.0
 11
247.010859617376
 21
-30.36516510614081
 31
0.0
  0
CIRCLE
  5
36A
  8
__-2
  6
CONTINUOUS
 62
     7
 10
247.010859617376
 20
-39.36516510614081
 30
0.0
 40
0.2999816894531193
  0
CIRCLE
  5
36B
  8
__-2
  6
CONTINUOUS
 62
     7
 10
247.010859617376
 20
-30.36516510614081
 30
0.0
 40
0.2999816894531193
  0
INSERT
  5
36C
  8
__-2
 62
     7
  2
____-37
 10
0.0
 20
0.0
 30
0.0
  0
ENDBLK
  5
FC
  8
0
  0
BLOCK
  8
0
  2
____-39
 70
     0
 10
0.0
 20
0.0
 30
0.0
  3
____-39
  1

  0
LINE
  5
36D
  8
__-2
  6
CONTINUOUS
 62
     7
 10
314.0904254616708
 20
-62.14984209796835
 30
0.0
 11
306.9399378702888
 21
-62.14984209796835
 31
0.0
  0
LINE
  5
36E
  8
__-2
  6
CONTINUOUS
 62
     7
 10
306.9399378702888
 20
-62.14984209796835
 30
0.0
 11
297.0251949078121
 21
-44.97700354297274
 31
0.0
  0
TEXT
  5
36F
  8
__-2
 62
     7
 10
315.0904254616708
 20
-62.68606432019056
 30
0.0
 40
2.124016203703704
  1
2-Φ5.0×8.0皿
  7
______MEDIUM
 11
315.0904254616708
 21
-60.56204811648686
 31
0.0
 73
     3
  0
ENDBLK
  5
FF
  8
0
  0
BLOCK
  8
0
  2
____-40
 70
     0
 10
0.0
 20
0.0
 30
0.0
  3
____-40
  1

  0
TEXT
  5
370
  8
__-2
 62
     7
 10
298.5026256591843
 20
-66.64360955058707
 30
0.0
 40
2.124016203703704
  1
1.2
  7
______MEDIUM
 11
298.5026256591843
 21
-64.51959334688337
 31
0.0
 73
     3
  0
ENDBLK
  5
102
  8
0
  0
BLOCK
  8
0
  2
____-41
 70
     0
 10
0.0
 20
0.0
 30
0.0
  3
____-41
  1

  0
LINE
  5
371
  8
__-2
  6
CONTINUOUS
 62
     7
 10
297.5127811804048
 20
-59.36516510614263
 30
0.0
 11
297.5127811804048
 21
-69.36516510614263
 31
0.0
  0
LINE
  5
372
  8
__-2
  6
CONTINUOUS
 62
     7
 10
296.3127811804048
 20
-59.36516510614263
 30
0.0
 11
296.3127811804048
 21
-69.36516510614263
 31
0.0
  0
LINE
  5
373
  8
__-2
  6
CONTINUOUS
 62
     7
 10
296.3127811804048
 20
-69.36516510614263
 30
0.0
 11
302.3666447564066
 21
-69.36516510614263
 31
0.0
  0
LINE
  5
374
  8
__-2
  6
CONTINUOUS
 62
     7
 10
297.5127811804048
 20
-69.36516510614263
 30
0.0
 11
296.3127811804048
 21
-69.36516510614263
 31
0.0
  0
CIRCLE
  5
375
  8
__-2
  6
CONTINUOUS
 62
     7
 10
297.5127811804048
 20
-69.36516510614263
 30
0.0
 40
0.2999816894531477
  0
CIRCLE
  5
376
  8
__-2
  6
CONTINUOUS
 62
     7
 10
296.3127811804048
 20
-69.36516510614263
 30
0.0
 40
0.2999816894531477
  0
INSERT
  5
377
  8
__-2
 62
     7
  2
____-40
 10
0.0
 20
0.0
 30
0.0
  0
ENDBLK
  5
105
  8
0
  0
BLOCK
  8
0
  2
____-42
 70
     0
 10
0.0
 20
0.0
 30
0.0
  3
____-42
  1

  0
TEXT
  5
378
  8
__-2
 62
     7
 10
272.8230731487856
 20
-36.41902868214252
 30
0.0
 40
2.124016203703704
  1
1.2
 50
90.0
  7
______MEDIUM
 11
270.6990569450818
 21
-36.41902868214252
 31
0.0
 73
     3
  0
ENDBLK
  5
108
  8
0
  0
BLOCK
  8
0
  2
____-43
 70
     0
 10
0.0
 20
0.0
 30
0.0
  3
____-43
  1

  0
LINE
  5
379
  8
__-2
  6
CONTINUOUS
 62
     7
 10
275.5446287043411
 20
-30.36516510614086
 30
0.0
 11
275.5446287043411
 21
-36.41902868214252
 31
0.0
  0
LINE
  5
37A
  8
__-2
  6
CONTINUOUS
 62
     7
 10
275.5446287043411
 20
-31.5651651061408
 30
0.0
 11
275.5446287043411
 21
-30.36516510614086
 31
0.0
  0
CIRCLE
  5
37B
  8
__-2
  6
CONTINUOUS
 62
     7
 10
275.5446287043411
 20
-31.5651651061408
 30
0.0
 40
0.2999816894531477
  0
CIRCLE
  5
37C
  8
__-2
  6
CONTINUOUS
 62
     7
 10
275.5446287043411
 20
-30.36516510614086
 30
0.0
 40
0.2999816894531477
  0
INSERT
  5
37D
  8
__-2
 62
     7
  2
____-42
 10
0.0
 20
0.0
 30
0.0
  0
ENDBLK
  5
10B
  8
0
  0
BLOCK
  8
0
  2
____-44
 70
     0
 10
0.0
 20
0.0
 30
0.0
  3
____-44
  1

  0
INSERT
  5
37E
  8
__-2
 62
     7
  2
____-30
 10
0.0
 20
0.0
 30
0.0
  0
INSERT
  5
37F
  8
__-2
 62
     7
  2
____-32
 10
0.0
 20
0.0
 30
0.0
  0
INSERT
  5
380
  8
__-2
 62
     7
  2
____-34
 10
0.0
 20
0.0
 30
0.0
  0
INSERT
  5
381
  8
__-2
 62
     7
  2
____-36
 10
0.0
 20
0.0
 30
0.0
  0
INSERT
  5
382
  8
__-2
 62
     7
  2
____-38
 10
0.0
 20
0.0
 30
0.0
  0
INSERT
  5
383
  8
__-2
 62
     7
  2
____-39
 10
0.0
 20
0.0
 30
0.0
  0
INSERT
  5
384
  8
__-2
 62
     7
  2
____-41
 10
0.0
 20
0.0
 30
0.0
  0
INSERT
  5
385
  8
__-2
 62
     7
  2
____-43
 10
0.0
 20
0.0
 30
0.0
  0
ENDBLK
  5
10E
  8
0
  0
BLOCK
  8
0
  2
___-4_3D
 70
     0
 10
0.0
 20
0.0
 30
0.0
  3
___-4_3D
  1

  0
LINE
  5
386
  8
__-2
  6
CONTINUOUS
 10
120.4750636794565
 20
274.9812864905903
 30
0.0
 11
-29.52493632054347
 21
274.9812864905903
 31
0.0
  0
LINE
  5
387
  8
__-2
  6
CONTINUOUS
 10
120.4750636794547
 20
310.4812864905925
 30
0.0
 11
120.4750636794565
 21
274.9812864905903
 31
0.0
  0
LINE
  5
388
  8
__-2
  6
CONTINUOUS
 10
120.4750636794563
 20
310.4812864905925
 30
0.0
 11
-29.5249363205437
 21
310.4812864905925
 31
0.0
  0
LINE
  5
389
  8
__-2
  6
CONTINUOUS
 10
-29.52493632054166
 20
310.4812864905925
 30
0.0
 11
-29.52493632054347
 21
274.9812864905903
 31
0.0
  0
LINE
  5
38A
  8
__-2
  6
DASHED2
 62
   251
 10
120.4750636794563
 20
276.5812864905906
 30
0.0
 11
-29.5249363205437
 21
276.5812864905906
 31
0.0
  0
LINE
  5
38B
  8
__-2
  6
CONTINUOUS
 10
110.4750636794561
 20
305.6085010279485
 30
0.0
 11
110.4750636794561
 21
313.6085010279485
 31
0.0
  0
LINE
  5
38C
  8
__-2
  6
DASHED2
 62
   251
 10
120.4750636794563
 20
309.2812864905925
 30
0.0
 11
-29.5249363205437
 21
309.2812864905925
 31
0.0
  0
LINE
  5
38D
  8
__-2
  6
CONTINUOUS
 10
-19.52493632054302
 20
305.6085010279485
 30
0.0
 11
-19.52493632054302
 21
313.6085010279485
 31
0.0
  0
LINE
  5
38E
  8
__-2
  6
CONTINUOUS
 10
120.4750636794565
 20
279.3812864905899
 30
0.0
 11
-29.52493632054347
 21
279.3812864905904
 31
0.0
  0
LINE
  5
38F
  8
__-2
  6
DASHED2
 62
   251
 10
114.675063679457
 20
310.481286490593
 30
0.0
 11
113.4750636794566
 21
309.2812864905925
 31
0.0
  0
LINE
  5
390
  8
__-2
  6
DASHED2
 62
   251
 10
106.275063679456
 20
310.481286490593
 30
0.0
 11
107.4750636794567
 21
309.2812864905925
 31
0.0
  0
LINE
  5
391
  8
__-2
  6
DASHED2
 62
   251
 10
-23.72493632054307
 20
310.481286490593
 30
0.0
 11
-22.52493632054243
 21
309.2812864905925
 31
0.0
  0
LINE
  5
392
  8
__-2
  6
DASHED2
 62
   251
 10
-15.32493632054297
 20
310.481286490593
 30
0.0
 11
-16.52493632054361
 21
309.2812864905925
 31
0.0
  0
ENDBLK
  5
111
  8
0
  0
BLOCK
  8
0
  2
____-45
 70
     0
 10
0.0
 20
0.0
 30
0.0
  3
____-45
  1

  0
TEXT
  5
393
  8
__-2
 62
     7
 10
55.72505038686249
 20
73.03457573784836
 30
0.0
 40
2.124016203703704
  1
35.5
 50
90.0
  7
______MEDIUM
 11
53.60103418315879
 21
73.03457573784836
 31
0.0
 73
     3
  0
ENDBLK
  5
115
  8
0
  0
BLOCK
  8
0
  2
____-46
 70
     0
 10
0.0
 20
0.0
 30
0.0
  3
____-46
  1

  0
LINE
  5
394
  8
__-2
  6
CONTINUOUS
 62
     7
 10
68.44660594241805
 20
93.50000000000227
 30
0.0
 11
58.44660594241807
 21
93.50000000000227
 31
0.0
  0
LINE
  5
395
  8
__-2
  6
CONTINUOUS
 62
     7
 10
68.44660594241805
 20
58.0
 30
0.0
 11
58.44660594241807
 21
58.0
 31
0.0
  0
LINE
  5
396
  8
__-2
  6
CONTINUOUS
 62
     7
 10
58.44660594241807
 20
93.50000000000227
 30
0.0
 11
58.44660594241807
 21
58.0
 31
0.0
  0
CIRCLE
  5
397
  8
__-2
  6
CONTINUOUS
 62
     7
 10
58.44660594241807
 20
93.50000000000227
 30
0.0
 40
0.2999816894531264
  0
CIRCLE
  5
398
  8
__-2
  6
CONTINUOUS
 62
     7
 10
58.44660594241807
 20
58.0
 30
0.0
 40
0.2999816894531264
  0
INSERT
  5
399
  8
__-2
 62
     7
  2
____-45
 10
0.0
 20
0.0
 30
0.0
  0
ENDBLK
  5
118
  8
0
  0
BLOCK
  8
0
  2
____-47
 70
     0
 10
0.0
 20
0.0
 30
0.0
  3
____-47
  1

  0
TEXT
  5
39A
  8
__-2
 62
     7
 10
146.0963618017917
 20
116.2215555555578
 30
0.0
 40
2.124016203703704
  1
150
  7
______MEDIUM
 11
146.0963618017917
 21
118.3455717592615
 31
0.0
 73
     3
  0
ENDBLK
  5
11B
  8
0
  0
BLOCK
  8
0
  2
____-48
 70
     0
 10
0.0
 20
0.0
 30
0.0
  3
____-48
  1

  0
LINE
  5
39B
  8
__-2
  6
CONTINUOUS
 62
     7
 10
223.4466059424167
 20
98.50000000000227
 30
0.0
 11
223.4466059424167
 21
113.5000000000023
 31
0.0
  0
LINE
  5
39C
  8
__-2
  6
CONTINUOUS
 62
     7
 10
73.44660594241668
 20
98.50000000000227
 30
0.0
 11
73.44660594241668
 21
113.5000000000023
 31
0.0
  0
LINE
  5
39D
  8
__-2
  6
CONTINUOUS
 62
     7
 10
223.4466059424167
 20
113.5000000000023
 30
0.0
 11
73.44660594241668
 21
113.5000000000023
 31
0.0
  0
CIRCLE
  5
39E
  8
__-2
  6
CONTINUOUS
 62
     7
 10
223.4466059424167
 20
113.5000000000023
 30
0.0
 40
0.2999816894531193
  0
CIRCLE
  5
39F
  8
__-2
  6
CONTINUOUS
 62
     7
 10
73.44660594241668
 20
113.5000000000023
 30
0.0
 40
0.2999816894531193
  0
INSERT
  5
3A0
  8
__-2
 62
     7
  2
____-47
 10
0.0
 20
0.0
 30
0.0
  0
ENDBLK
  5
11E
  8
0
  0
BLOCK
  8
0
  2
____-49
 70
     0
 10
0.0
 20
0.0
 30
0.0
  3
____-49
  1

  0
TEXT
  5
3A1
  8
__-2
 62
     7
 10
76.87977651533379
 20
106.2215555555578
 30
0.0
 40
2.124016203703704
  1
10
  7
______MEDIUM
 11
76.87977651533379
 21
108.3455717592615
 31
0.0
 73
     3
  0
ENDBLK
  5
121
  8
0
  0
BLOCK
  8
0
  2
____-50
 70
     0
 10
0.0
 20
0.0
 30
0.0
  3
____-50
  1

  0
LINE
  5
3A2
  8
__-2
  6
CONTINUOUS
 62
     7
 10
83.44660594241668
 20
98.50000000000227
 30
0.0
 11
83.44660594241668
 21
103.5000000000023
 31
0.0
  0
LINE
  5
3A3
  8
__-2
  6
CONTINUOUS
 62
     7
 10
73.44660594241759
 20
98.50000000000227
 30
0.0
 11
73.44660594241759
 21
103.5000000000023
 31
0.0
  0
LINE
  5
3A4
  8
__-2
  6
CONTINUOUS
 62
     7
 10
83.44660594241668
 20
103.5000000000023
 30
0.0
 11
73.44660594241759
 21
103.5000000000023
 31
0.0
  0
CIRCLE
  5
3A5
  8
__-2
  6
CONTINUOUS
 62
     7
 10
83.44660594241668
 20
103.5000000000023
 30
0.0
 40
0.2999816894531193
  0
CIRCLE
  5
3A6
  8
__-2
  6
CONTINUOUS
 62
     7
 10
73.44660594241759
 20
103.5000000000023
 30
0.0
 40
0.2999816894531193
  0
INSERT
  5
3A7
  8
__-2
 62
     7
  2
____-49
 10
0.0
 20
0.0
 30
0.0
  0
ENDBLK
  5
124
  8
0
  0
BLOCK
  8
0
  2
____-51
 70
     0
 10
0.0
 20
0.0
 30
0.0
  3
____-51
  1

  0
TEXT
  5
3A8
  8
__-2
 62
     7
 10
146.0963618017913
 20
106.2215555555578
 30
0.0
 40
2.124016203703704
  1
130
  7
______MEDIUM
 11
146.0963618017913
 21
108.3455717592615
 31
0.0
 73
     3
  0
ENDBLK
  5
127
  8
0
  0
BLOCK
  8
0
  2
____-52
 70
     0
 10
0.0
 20
0.0
 30
0.0
  3
____-52
  1

  0
LINE
  5
3A9
  8
__-2
  6
CONTINUOUS
 62
     7
 10
83.44660594241634
 20
98.50000000000227
 30
0.0
 11
83.44660594241634
 21
103.5000000000023
 31
0.0
  0
LINE
  5
3AA
  8
__-2
  6
CONTINUOUS
 62
     7
 10
213.4466059424163
 20
98.50000000000227
 30
0.0
 11
213.4466059424163
 21
103.5000000000023
 31
0.0
  0
LINE
  5
3AB
  8
__-2
  6
CONTINUOUS
 62
     7
 10
83.44660594241634
 20
103.5000000000023
 30
0.0
 11
213.4466059424163
 21
103.5000000000023
 31
0.0
  0
CIRCLE
  5
3AC
  8
__-2
  6
CONTINUOUS
 62
     7
 10
83.44660594241634
 20
103.5000000000023
 30
0.0
 40
0.2999816894531193
  0
CIRCLE
  5
3AD
  8
__-2
  6
CONTINUOUS
 62
     7
 10
213.4466059424163
 20
103.5000000000023
 30
0.0
 40
0.2999816894531193
  0
INSERT
  5
3AE
  8
__-2
 62
     7
  2
____-51
 10
0.0
 20
0.0
 30
0.0
  0
ENDBLK
  5
12A
  8
0
  0
BLOCK
  8
0
  2
____-53
 70
     0
 10
0.0
 20
0.0
 30
0.0
  3
____-53
  1

  0
TEXT
  5
3AF
  8
__-2
 62
     7
 10
216.8797765153329
 20
106.2215555555578
 30
0.0
 40
2.124016203703704
  1
10
  7
______MEDIUM
 11
216.8797765153329
 21
108.3455717592615
 31
0.0
 73
     3
  0
ENDBLK
  5
12D
  8
0
  0
BLOCK
  8
0
  2
____-54
 70
     0
 10
0.0
 20
0.0
 30
0.0
  3
____-54
  1

  0
LINE
  5
3B0
  8
__-2
  6
CONTINUOUS
 62
     7
 10
223.4466059424164
 20
98.50000000000227
 30
0.0
 11
223.4466059424164
 21
103.5000000000023
 31
0.0
  0
LINE
  5
3B1
  8
__-2
  6
CONTINUOUS
 62
     7
 10
213.446605942416
 20
98.50000000000227
 30
0.0
 11
213.446605942416
 21
103.5000000000023
 31
0.0
  0
LINE
  5
3B2
  8
__-2
  6
CONTINUOUS
 62
     7
 10
223.4466059424164
 20
103.5000000000023
 30
0.0
 11
213.446605942416
 21
103.5000000000023
 31
0.0
  0
CIRCLE
  5
3B3
  8
__-2
  6
CONTINUOUS
 62
     7
 10
223.4466059424164
 20
103.5000000000023
 30
0.0
 40
0.2999816894531193
  0
CIRCLE
  5
3B4
  8
__-2
  6
CONTINUOUS
 62
     7
 10
213.446605942416
 20
103.5000000000023
 30
0.0
 40
0.2999816894531193
  0
INSERT
  5
3B5
  8
__-2
 62
     7
  2
____-53
 10
0.0
 20
0.0
 30
0.0
  0
ENDBLK
  5
130
  8
0
  0
BLOCK
  8
0
  2
____-55
 70
     0
 10
0.0
 20
0.0
 30
0.0
  3
____-55
  1

  0
INSERT
  5
3B6
  8
__-2
 62
     7
  2
____-46
 10
0.0
 20
0.0
 30
0.0
  0
INSERT
  5
3B7
  8
__-2
 62
     7
  2
____-48
 10
0.0
 20
0.0
 30
0.0
  0
INSERT
  5
3B8
  8
__-2
 62
     7
  2
____-50
 10
0.0
 20
0.0
 30
0.0
  0
INSERT
  5
3B9
  8
__-2
 62
     7
  2
____-52
 10
0.0
 20
0.0
 30
0.0
  0
INSERT
  5
3BA
  8
__-2
 62
     7
  2
____-54
 10
0.0
 20
0.0
 30
0.0
  0
ENDBLK
  5
133
  8
0
  0
BLOCK
  8
0
  2
___-5_3D
 70
     0
 10
0.0
 20
0.0
 30
0.0
  3
___-5_3D
  1

  0
LINE
  5
3BB
  8
__-2
  6
DASHED2
 62
   251
 10
120.4750636794563
 20
212.4409975072525
 30
0.0
 11
-29.5249363205437
 21
212.4409975072525
 31
0.0
  0
LINE
  5
3BC
  8
__-2
  6
CONTINUOUS
 10
120.475063679457
 20
213.6409975072525
 30
0.0
 11
-29.52493632054302
 21
213.6409975072525
 31
0.0
  0
LINE
  5
3BD
  8
__-2
  6
CONTINUOUS
 10
118.9750636794574
 20
204.6409975072525
 30
0.0
 11
-28.02493632054257
 21
204.6409975072525
 31
0.0
  0
LINE
  5
3BE
  8
__-2
  6
CONTINUOUS
 10
104.3101170714983
 20
201.6409975072515
 30
0.0
 11
116.6400102874145
 21
201.6409975072515
 31
0.0
  0
LINE
  5
3BF
  8
__-2
  6
CONTINUOUS
 10
110.4750636794563
 20
207.80594411521
 30
0.0
 11
110.4750636794563
 21
195.4760508992936
 31
0.0
  0
LINE
  5
3C0
  8
__-2
  6
CONTINUOUS
 10
-29.02493632054257
 20
188.6409975072515
 30
0.0
 11
119.9750636794574
 21
188.6409975072515
 31
0.0
  0
LINE
  5
3C1
  8
__-2
  6
CONTINUOUS
 10
-13.35998971258482
 20
201.6409975072515
 30
0.0
 11
-25.68988292850122
 21
201.6409975072515
 31
0.0
  0
LINE
  5
3C2
  8
__-2
  6
CONTINUOUS
 10
-19.52493632054302
 20
207.80594411521
 30
0.0
 11
-19.52493632054302
 21
195.4760508992936
 31
0.0
  0
LINE
  5
3C3
  8
__-2
  6
CONTINUOUS
 10
-29.52493632054188
 20
213.6409975072525
 30
0.0
 11
-29.52493632054188
 21
189.1409975072515
 31
0.0
  0
ARC
  5
3C4
  8
__-2
  6
CONTINUOUS
 10
-28.02493632054191
 20
206.1409975072524
 30
0.0
 40
1.499999999999975
 50
179.9999999999989
 51
270.0000000000009
  0
POLYLINE
  5
3C5
  8
__-2
  6
CONTINUOUS
 66
     1
 10
0.0
 20
0.0
 30
0.0
 70
   129
  0
VERTEX
  5
3C6
  8
__-2
  6
CONTINUOUS
 10
113.0750636794563
 20
201.6409975072515
 30
0.0
  0
VERTEX
  5
3C7
  8
__-2
  6
CONTINUOUS
 10
113.062543968804
 20
201.3861529423947
 30
0.0
  0
VERTEX
  5
3C8
  8
__-2
  6
CONTINUOUS
 10
113.0251054085047
 20
201.1337626700096
 30
0.0
  0
VERTEX
  5
3C9
  8
__-2
  6
CONTINUOUS
 10
112.9631085523601
 20
200.8862573463899
 30
0.0
  0
VERTEX
  5
3CA
  8
__-2
  6
CONTINUOUS
 10
112.8771504639857
 20
200.6460205831023
 30
0.0
  0
VERTEX
  5
3CB
  8
__-2
  6
CONTINUOUS
 10
112.768058966762
 20
200.4153659915039
 30
0.0
  0
VERTEX
  5
3CC
  8
__-2
  6
CONTINUOUS
 10
112.6368846714429
 20
200.1965149014006
 30
0.0
  0
VERTEX
  5
3CD
  8
__-2
  6
CONTINUOUS
 10
112.4848908581994
 20
199.9915749684261
 30
0.0
  0
VERTEX
  5
3CE
  8
__-2
  6
CONTINUOUS
 10
112.3135413105413
 20
199.8025198761665
 30
0.0
  0
VERTEX
  5
3CF
  8
__-2
  6
CONTINUOUS
 10
112.1244862182818
 20
199.6311703285084
 30
0.0
  0
VERTEX
  5
3D0
  8
__-2
  6
CONTINUOUS
 10
111.9195462853073
 20
199.4791765152649
 30
0.0
  0
VERTEX
  5
3D1
  8
__-2
  6
CONTINUOUS
 10
111.7006951952039
 20
199.3480022199458
 30
0.0
  0
VERTEX
  5
3D2
  8
__-2
  6
CONTINUOUS
 10
111.4700406036055
 20
199.2389107227222
 30
0.0
  0
VERTEX
  5
3D3
  8
__-2
  6
CONTINUOUS
 10
111.2298038403179
 20
199.1529526343478
 30
0.0
  0
VERTEX
  5
3D4
  8
__-2
  6
CONTINUOUS
 10
110.9822985166982
 20
199.0909557782031
 30
0.0
  0
VERTEX
  5
3D5
  8
__-2
  6
CONTINUOUS
 10
110.7299082443132
 20
199.0535172179038
 30
0.0
  0
VERTEX
  5
3D6
  8
__-2
  6
CONTINUOUS
 10
110.4750636794563
 20
199.0409975072515
 30
0.0
  0
VERTEX
  5
3D7
  8
__-2
  6
CONTINUOUS
 10
110.2202191145994
 20
199.0535172179038
 30
0.0
  0
VERTEX
  5
3D8
  8
__-2
  6
CONTINUOUS
 10
109.9678288422144
 20
199.0909557782031
 30
0.0
  0
VERTEX
  5
3D9
  8
__-2
  6
CONTINUOUS
 10
109.7203235185947
 20
199.1529526343478
 30
0.0
  0
VERTEX
  5
3DA
  8
__-2
  6
CONTINUOUS
 10
109.4800867553071
 20
199.2389107227222
 30
0.0
  0
VERTEX
  5
3DB
  8
__-2
  6
CONTINUOUS
 10
109.2494321637087
 20
199.3480022199458
 30
0.0
  0
VERTEX
  5
3DC
  8
__-2
  6
CONTINUOUS
 10
109.0305810736053
 20
199.4791765152649
 30
0.0
  0
VERTEX
  5
3DD
  8
__-2
  6
CONTINUOUS
 10
108.8256411406308
 20
199.6311703285084
 30
0.0
  0
VERTEX
  5
3DE
  8
__-2
  6
CONTINUOUS
 10
108.6365860483713
 20
199.8025198761665
 30
0.0
  0
VERTEX
  5
3DF
  8
__-2
  6
CONTINUOUS
 10
108.4652365007132
 20
199.9915749684261
 30
0.0
  0
VERTEX
  5
3E0
  8
__-2
  6
CONTINUOUS
 10
108.3132426874697
 20
200.1965149014006
 30
0.0
  0
VERTEX
  5
3E1
  8
__-2
  6
CONTINUOUS
 10
108.1820683921506
 20
200.4153659915039
 30
0.0
  0
VERTEX
  5
3E2
  8
__-2
  6
CONTINUOUS
 10
108.0729768949269
 20
200.6460205831023
 30
0.0
  0
VERTEX
  5
3E3
  8
__-2
  6
CONTINUOUS
 10
107.9870188065525
 20
200.8862573463899
 30
0.0
  0
VERTEX
  5
3E4
  8
__-2
  6
CONTINUOUS
 10
107.9250219504079
 20
201.1337626700096
 30
0.0
  0
VERTEX
  5
3E5
  8
__-2
  6
CONTINUOUS
 10
107.8875833901086
 20
201.3861529423947
 30
0.0
  0
VERTEX
  5
3E6
  8
__-2
  6
CONTINUOUS
 10
107.8750636794563
 20
201.6409975072515
 30
0.0
  0
VERTEX
  5
3E7
  8
__-2
  6
CONTINUOUS
 10
107.8875833901086
 20
201.8958420721084
 30
0.0
  0
VERTEX
  5
3E8
  8
__-2
  6
CONTINUOUS
 10
107.9250219504079
 20
202.1482323444935
 30
0.0
  0
VERTEX
  5
3E9
  8
__-2
  6
CONTINUOUS
 10
107.9870188065525
 20
202.3957376681132
 30
0.0
  0
VERTEX
  5
3EA
  8
__-2
  6
CONTINUOUS
 10
108.0729768949269
 20
202.6359744314008
 30
0.0
  0
VERTEX
  5
3EB
  8
__-2
  6
CONTINUOUS
 10
108.1820683921506
 20
202.8666290229991
 30
0.0
  0
VERTEX
  5
3EC
  8
__-2
  6
CONTINUOUS
 10
108.3132426874697
 20
203.0854801131025
 30
0.0
  0
VERTEX
  5
3ED
  8
__-2
  6
CONTINUOUS
 10
108.4652365007132
 20
203.290420046077
 30
0.0
  0
VERTEX
  5
3EE
  8
__-2
  6
CONTINUOUS
 10
108.6365860483713
 20
203.4794751383366
 30
0.0
  0
VERTEX
  5
3EF
  8
__-2
  6
CONTINUOUS
 10
108.8256411406308
 20
203.6508246859947
 30
0.0
  0
VERTEX
  5
3F0
  8
__-2
  6
CONTINUOUS
 10
109.0305810736053
 20
203.8028184992382
 30
0.0
  0
VERTEX
  5
3F1
  8
__-2
  6
CONTINUOUS
 10
109.2494321637087
 20
203.9339927945573
 30
0.0
  0
VERTEX
  5
3F2
  8
__-2
  6
CONTINUOUS
 10
109.4800867553071
 20
204.0430842917809
 30
0.0
  0
VERTEX
  5
3F3
  8
__-2
  6
CONTINUOUS
 10
109.7203235185947
 20
204.1290423801553
 30
0.0
  0
VERTEX
  5
3F4
  8
__-2
  6
CONTINUOUS
 10
109.9678288422144
 20
204.1910392363
 30
0.0
  0
VERTEX
  5
3F5
  8
__-2
  6
CONTINUOUS
 10
110.2202191145994
 20
204.2284777965993
 30
0.0
  0
VERTEX
  5
3F6
  8
__-2
  6
CONTINUOUS
 10
110.4750636794563
 20
204.2409975072516
 30
0.0
  0
VERTEX
  5
3F7
  8
__-2
  6
CONTINUOUS
 10
110.7299082443132
 20
204.2284777965993
 30
0.0
  0
VERTEX
  5
3F8
  8
__-2
  6
CONTINUOUS
 10
110.9822985166982
 20
204.1910392363
 30
0.0
  0
VERTEX
  5
3F9
  8
__-2
  6
CONTINUOUS
 10
111.2298038403179
 20
204.1290423801553
 30
0.0
  0
VERTEX
  5
3FA
  8
__-2
  6
CONTINUOUS
 10
111.4700406036055
 20
204.0430842917809
 30
0.0
  0
VERTEX
  5
3FB
  8
__-2
  6
CONTINUOUS
 10
111.7006951952039
 20
203.9339927945573
 30
0.0
  0
VERTEX
  5
3FC
  8
__-2
  6
CONTINUOUS
 10
111.9195462853073
 20
203.8028184992382
 30
0.0
  0
VERTEX
  5
3FD
  8
__-2
  6
CONTINUOUS
 10
112.1244862182818
 20
203.6508246859947
 30
0.0
  0
VERTEX
  5
3FE
  8
__-2
  6
CONTINUOUS
 10
112.3135413105413
 20
203.4794751383366
 30
0.0
  0
VERTEX
  5
3FF
  8
__-2
  6
CONTINUOUS
 10
112.4848908581994
 20
203.290420046077
 30
0.0
  0
VERTEX
  5
400
  8
__-2
  6
CONTINUOUS
 10
112.6368846714429
 20
203.0854801131025
 30
0.0
  0
VERTEX
  5
401
  8
__-2
  6
CONTINUOUS
 10
112.768058966762
 20
202.8666290229991
 30
0.0
  0
VERTEX
  5
402
  8
__-2
  6
CONTINUOUS
 10
112.8771504639857
 20
202.6359744314008
 30
0.0
  0
VERTEX
  5
403
  8
__-2
  6
CONTINUOUS
 10
112.9631085523601
 20
202.3957376681132
 30
0.0
  0
VERTEX
  5
404
  8
__-2
  6
CONTINUOUS
 10
113.0251054085047
 20
202.1482323444935
 30
0.0
  0
VERTEX
  5
405
  8
__-2
  6
CONTINUOUS
 10
113.062543968804
 20
201.8958420721084
 30
0.0
  0
SEQEND
  5
406
  8
__-2
  6
CONTINUOUS
  0
POLYLINE
  5
407
  8
__-2
  6
CONTINUOUS
 66
     1
 10
0.0
 20
0.0
 30
0.0
 70
   129
  0
VERTEX
  5
408
  8
__-2
  6
CONTINUOUS
 10
-16.924936320543
 20
201.6409975072515
 30
0.0
  0
VERTEX
  5
409
  8
__-2
  6
CONTINUOUS
 10
-16.93745603119529
 20
201.3861529423947
 30
0.0
  0
VERTEX
  5
40A
  8
__-2
  6
CONTINUOUS
 10
-16.9748945914946
 20
201.1337626700096
 30
0.0
  0
VERTEX
  5
40B
  8
__-2
  6
CONTINUOUS
 10
-17.03689144763926
 20
200.8862573463899
 30
0.0
  0
VERTEX
  5
40C
  8
__-2
  6
CONTINUOUS
 10
-17.12284953601365
 20
200.6460205831023
 30
0.0
  0
VERTEX
  5
40D
  8
__-2
  6
CONTINUOUS
 10
-17.23194103323728
 20
200.4153659915039
 30
0.0
  0
VERTEX
  5
40E
  8
__-2
  6
CONTINUOUS
 10
-17.36311532855638
 20
200.1965149014006
 30
0.0
  0
VERTEX
  5
40F
  8
__-2
  6
CONTINUOUS
 10
-17.51510914179989
 20
199.9915749684261
 30
0.0
  0
VERTEX
  5
410
  8
__-2
  6
CONTINUOUS
 10
-17.68645868945798
 20
199.8025198761665
 30
0.0
  0
VERTEX
  5
411
  8
__-2
  6
CONTINUOUS
 10
-17.87551378171753
 20
199.6311703285084
 30
0.0
  0
VERTEX
  5
412
  8
__-2
  6
CONTINUOUS
 10
-18.08045371469204
 20
199.4791765152649
 30
0.0
  0
VERTEX
  5
413
  8
__-2
  6
CONTINUOUS
 10
-18.29930480479542
 20
199.3480022199458
 30
0.0
  0
VERTEX
  5
414
  8
__-2
  6
CONTINUOUS
 10
-18.52995939639378
 20
199.2389107227222
 30
0.0
  0
VERTEX
  5
415
  8
__-2
  6
CONTINUOUS
 10
-18.77019615968141
 20
199.1529526343478
 30
0.0
  0
VERTEX
  5
416
  8
__-2
  6
CONTINUOUS
 10
-19.01770148330108
 20
199.0909557782031
 30
0.0
  0
VERTEX
  5
417
  8
__-2
  6
CONTINUOUS
 10
-19.27009175568616
 20
199.0535172179038
 30
0.0
  0
VERTEX
  5
418
  8
__-2
  6
CONTINUOUS
 10
-19.52493632054302
 20
199.0409975072515
 30
0.0
  0
VERTEX
  5
419
  8
__-2
  6
CONTINUOUS
 10
-19.77978088539988
 20
199.0535172179038
 30
0.0
  0
VERTEX
  5
41A
  8
__-2
  6
CONTINUOUS
 10
-20.03217115778496
 20
199.0909557782031
 30
0.0
  0
VERTEX
  5
41B
  8
__-2
  6
CONTINUOUS
 10
-20.27967648140463
 20
199.1529526343478
 30
0.0
  0
VERTEX
  5
41C
  8
__-2
  6
CONTINUOUS
 10
-20.51991324469226
 20
199.2389107227222
 30
0.0
  0
VERTEX
  5
41D
  8
__-2
  6
CONTINUOUS
 10
-20.75056783629062
 20
199.3480022199458
 30
0.0
  0
VERTEX
  5
41E
  8
__-2
  6
CONTINUOUS
 10
-20.969418926394
 20
199.4791765152649
 30
0.0
  0
VERTEX
  5
41F
  8
__-2
  6
CONTINUOUS
 10
-21.17435885936851
 20
199.6311703285084
 30
0.0
  0
VERTEX
  5
420
  8
__-2
  6
CONTINUOUS
 10
-21.36341395162806
 20
199.8025198761665
 30
0.0
  0
VERTEX
  5
421
  8
__-2
  6
CONTINUOUS
 10
-21.53476349928615
 20
199.9915749684261
 30
0.0
  0
VERTEX
  5
422
  8
__-2
  6
CONTINUOUS
 10
-21.68675731252966
 20
200.1965149014006
 30
0.0
  0
VERTEX
  5
423
  8
__-2
  6
CONTINUOUS
 10
-21.81793160784876
 20
200.4153659915039
 30
0.0
  0
VERTEX
  5
424
  8
__-2
  6
CONTINUOUS
 10
-21.92702310507239
 20
200.6460205831023
 30
0.0
  0
VERTEX
  5
425
  8
__-2
  6
CONTINUOUS
 10
-22.01298119344678
 20
200.8862573463899
 30
0.0
  0
VERTEX
  5
426
  8
__-2
  6
CONTINUOUS
 10
-22.07497804959144
 20
201.1337626700096
 30
0.0
  0
VERTEX
  5
427
  8
__-2
  6
CONTINUOUS
 10
-22.11241660989075
 20
201.3861529423947
 30
0.0
  0
VERTEX
  5
428
  8
__-2
  6
CONTINUOUS
 10
-22.12493632054304
 20
201.6409975072515
 30
0.0
  0
VERTEX
  5
429
  8
__-2
  6
CONTINUOUS
 10
-22.11241660989075
 20
201.8958420721084
 30
0.0
  0
VERTEX
  5
42A
  8
__-2
  6
CONTINUOUS
 10
-22.07497804959144
 20
202.1482323444935
 30
0.0
  0
VERTEX
  5
42B
  8
__-2
  6
CONTINUOUS
 10
-22.01298119344678
 20
202.3957376681132
 30
0.0
  0
VERTEX
  5
42C
  8
__-2
  6
CONTINUOUS
 10
-21.92702310507239
 20
202.6359744314008
 30
0.0
  0
VERTEX
  5
42D
  8
__-2
  6
CONTINUOUS
 10
-21.81793160784876
 20
202.8666290229991
 30
0.0
  0
VERTEX
  5
42E
  8
__-2
  6
CONTINUOUS
 10
-21.68675731252966
 20
203.0854801131025
 30
0.0
  0
VERTEX
  5
42F
  8
__-2
  6
CONTINUOUS
 10
-21.53476349928615
 20
203.290420046077
 30
0.0
  0
VERTEX
  5
430
  8
__-2
  6
CONTINUOUS
 10
-21.36341395162806
 20
203.4794751383366
 30
0.0
  0
VERTEX
  5
431
  8
__-2
  6
CONTINUOUS
 10
-21.17435885936851
 20
203.6508246859947
 30
0.0
  0
VERTEX
  5
432
  8
__-2
  6
CONTINUOUS
 10
-20.969418926394
 20
203.8028184992382
 30
0.0
  0
VERTEX
  5
433
  8
__-2
  6
CONTINUOUS
 10
-20.75056783629062
 20
203.9339927945573
 30
0.0
  0
VERTEX
  5
434
  8
__-2
  6
CONTINUOUS
 10
-20.51991324469226
 20
204.0430842917809
 30
0.0
  0
VERTEX
  5
435
  8
__-2
  6
CONTINUOUS
 10
-20.27967648140463
 20
204.1290423801553
 30
0.0
  0
VERTEX
  5
436
  8
__-2
  6
CONTINUOUS
 10
-20.03217115778496
 20
204.1910392363
 30
0.0
  0
VERTEX
  5
437
  8
__-2
  6
CONTINUOUS
 10
-19.77978088539988
 20
204.2284777965993
 30
0.0
  0
VERTEX
  5
438
  8
__-2
  6
CONTINUOUS
 10
-19.52493632054302
 20
204.2409975072516
 30
0.0
  0
VERTEX
  5
439
  8
__-2
  6
CONTINUOUS
 10
-19.27009175568616
 20
204.2284777965993
 30
0.0
  0
VERTEX
  5
43A
  8
__-2
  6
CONTINUOUS
 10
-19.01770148330108
 20
204.1910392363
 30
0.0
  0
VERTEX
  5
43B
  8
__-2
  6
CONTINUOUS
 10
-18.77019615968141
 20
204.1290423801553
 30
0.0
  0
VERTEX
  5
43C
  8
__-2
  6
CONTINUOUS
 10
-18.52995939639378
 20
204.0430842917809
 30
0.0
  0
VERTEX
  5
43D
  8
__-2
  6
CONTINUOUS
 10
-18.29930480479542
 20
203.9339927945573
 30
0.0
  0
VERTEX
  5
43E
  8
__-2
  6
CONTINUOUS
 10
-18.08045371469204
 20
203.8028184992382
 30
0.0
  0
VERTEX
  5
43F
  8
__-2
  6
CONTINUOUS
 10
-17.87551378171753
 20
203.6508246859947
 30
0.0
  0
VERTEX
  5
440
  8
__-2
  6
CONTINUOUS
 10
-17.68645868945798
 20
203.4794751383366
 30
0.0
  0
VERTEX
  5
441
  8
__-2
  6
CONTINUOUS
 10
-17.51510914179989
 20
203.290420046077
 30
0.0
  0
VERTEX
  5
442
  8
__-2
  6
CONTINUOUS
 10
-17.36311532855638
 20
203.0854801131025
 30
0.0
  0
VERTEX
  5
443
  8
__-2
  6
CONTINUOUS
 10
-17.23194103323728
 20
202.8666290229991
 30
0.0
  0
VERTEX
  5
444
  8
__-2
  6
CONTINUOUS
 10
-17.12284953601365
 20
202.6359744314008
 30
0.0
  0
VERTEX
  5
445
  8
__-2
  6
CONTINUOUS
 10
-17.03689144763926
 20
202.3957376681132
 30
0.0
  0
VERTEX
  5
446
  8
__-2
  6
CONTINUOUS
 10
-16.9748945914946
 20
202.1482323444935
 30
0.0
  0
VERTEX
  5
447
  8
__-2
  6
CONTINUOUS
 10
-16.93745603119529
 20
201.8958420721084
 30
0.0
  0
SEQEND
  5
448
  8
__-2
  6
CONTINUOUS
  0
POLYLINE
  5
449
  8
__-2
  6
DASHED2
 62
   251
 66
     1
 10
0.0
 20
0.0
 30
0.0
 70
   129
  0
VERTEX
  5
44A
  8
__-2
  6
DASHED2
 62
   251
 10
114.6750636794569
 20
201.6409975072515
 30
0.0
  0
VERTEX
  5
44B
  8
__-2
  6
DASHED2
 62
   251
 10
114.6548395314801
 20
201.2293255178674
 30
0.0
  0
VERTEX
  5
44C
  8
__-2
  6
DASHED2
 62
   251
 10
114.5943618571505
 20
200.8216181547837
 30
0.0
  0
VERTEX
  5
44D
  8
__-2
  6
DASHED2
 62
   251
 10
114.4942130895322
 20
200.4218018627827
 30
0.0
  0
VERTEX
  5
44E
  8
__-2
  6
DASHED2
 62
   251
 10
114.3553577160043
 20
200.033727091318
 30
0.0
  0
VERTEX
  5
44F
  8
__-2
  6
DASHED2
 62
   251
 10
114.17913298972
 20
199.6611312125822
 30
0.0
  0
VERTEX
  5
450
  8
__-2
  6
DASHED2
 62
   251
 10
113.9672360511275
 20
199.307602528569
 30
0.0
  0
VERTEX
  5
451
  8
__-2
  6
DASHED2
 62
   251
 10
113.7217075835803
 20
198.976545713764
 30
0.0
  0
VERTEX
  5
452
  8
__-2
  6
DASHED2
 62
   251
 10
113.4449121604403
 20
198.6711490262678
 30
0.0
  0
VERTEX
  5
453
  8
__-2
  6
DASHED2
 62
   251
 10
113.1395154729441
 20
198.3943536031277
 30
0.0
  0
VERTEX
  5
454
  8
__-2
  6
DASHED2
 62
   251
 10
112.8084586581391
 20
198.1488251355805
 30
0.0
  0
VERTEX
  5
455
  8
__-2
  6
DASHED2
 62
   251
 10
112.4549299741259
 20
197.9369281969881
 30
0.0
  0
VERTEX
  5
456
  8
__-2
  6
DASHED2
 62
   251
 10
112.0823340953901
 20
197.7607034707038
 30
0.0
  0
VERTEX
  5
457
  8
__-2
  6
DASHED2
 62
   251
 10
111.6942593239254
 20
197.6218480971759
 30
0.0
  0
VERTEX
  5
458
  8
__-2
  6
DASHED2
 62
   251
 10
111.2944430319243
 20
197.5216993295576
 30
0.0
  0
VERTEX
  5
459
  8
__-2
  6
DASHED2
 62
   251
 10
110.8867356688407
 20
197.4612216552279
 30
0.0
  0
VERTEX
  5
45A
  8
__-2
  6
DASHED2
 62
   251
 10
110.4750636794565
 20
197.4409975072512
 30
0.0
  0
VERTEX
  5
45B
  8
__-2
  6
DASHED2
 62
   251
 10
110.0633916900723
 20
197.4612216552279
 30
0.0
  0
VERTEX
  5
45C
  8
__-2
  6
DASHED2
 62
   251
 10
109.6556843269887
 20
197.5216993295576
 30
0.0
  0
VERTEX
  5
45D
  8
__-2
  6
DASHED2
 62
   251
 10
109.2558680349877
 20
197.6218480971759
 30
0.0
  0
VERTEX
  5
45E
  8
__-2
  6
DASHED2
 62
   251
 10
108.867793263523
 20
197.7607034707038
 30
0.0
  0
VERTEX
  5
45F
  8
__-2
  6
DASHED2
 62
   251
 10
108.4951973847871
 20
197.9369281969881
 30
0.0
  0
VERTEX
  5
460
  8
__-2
  6
DASHED2
 62
   251
 10
108.141668700774
 20
198.1488251355805
 30
0.0
  0
VERTEX
  5
461
  8
__-2
  6
DASHED2
 62
   251
 10
107.810611885969
 20
198.3943536031277
 30
0.0
  0
VERTEX
  5
462
  8
__-2
  6
DASHED2
 62
   251
 10
107.5052151984728
 20
198.6711490262678
 30
0.0
  0
VERTEX
  5
463
  8
__-2
  6
DASHED2
 62
   251
 10
107.2284197753327
 20
198.976545713764
 30
0.0
  0
VERTEX
  5
464
  8
__-2
  6
DASHED2
 62
   251
 10
106.9828913077855
 20
199.307602528569
 30
0.0
  0
VERTEX
  5
465
  8
__-2
  6
DASHED2
 62
   251
 10
106.7709943691931
 20
199.6611312125822
 30
0.0
  0
VERTEX
  5
466
  8
__-2
  6
DASHED2
 62
   251
 10
106.5947696429088
 20
200.033727091318
 30
0.0
  0
VERTEX
  5
467
  8
__-2
  6
DASHED2
 62
   251
 10
106.4559142693809
 20
200.4218018627827
 30
0.0
  0
VERTEX
  5
468
  8
__-2
  6
DASHED2
 62
   251
 10
106.3557655017626
 20
200.8216181547837
 30
0.0
  0
VERTEX
  5
469
  8
__-2
  6
DASHED2
 62
   251
 10
106.2952878274329
 20
201.2293255178674
 30
0.0
  0
VERTEX
  5
46A
  8
__-2
  6
DASHED2
 62
   251
 10
106.2750636794561
 20
201.6409975072515
 30
0.0
  0
VERTEX
  5
46B
  8
__-2
  6
DASHED2
 62
   251
 10
106.2952878274329
 20
202.0526694966357
 30
0.0
  0
VERTEX
  5
46C
  8
__-2
  6
DASHED2
 62
   251
 10
106.3557655017626
 20
202.4603768597194
 30
0.0
  0
VERTEX
  5
46D
  8
__-2
  6
DASHED2
 62
   251
 10
106.4559142693809
 20
202.8601931517204
 30
0.0
  0
VERTEX
  5
46E
  8
__-2
  6
DASHED2
 62
   251
 10
106.5947696429088
 20
203.2482679231851
 30
0.0
  0
VERTEX
  5
46F
  8
__-2
  6
DASHED2
 62
   251
 10
106.7709943691931
 20
203.6208638019209
 30
0.0
  0
VERTEX
  5
470
  8
__-2
  6
DASHED2
 62
   251
 10
106.9828913077855
 20
203.9743924859341
 30
0.0
  0
VERTEX
  5
471
  8
__-2
  6
DASHED2
 62
   251
 10
107.2284197753327
 20
204.3054493007391
 30
0.0
  0
VERTEX
  5
472
  8
__-2
  6
DASHED2
 62
   251
 10
107.5052151984728
 20
204.6108459882353
 30
0.0
  0
VERTEX
  5
473
  8
__-2
  6
DASHED2
 62
   251
 10
107.810611885969
 20
204.8876414113753
 30
0.0
  0
VERTEX
  5
474
  8
__-2
  6
DASHED2
 62
   251
 10
108.141668700774
 20
205.1331698789226
 30
0.0
  0
VERTEX
  5
475
  8
__-2
  6
DASHED2
 62
   251
 10
108.4951973847871
 20
205.345066817515
 30
0.0
  0
VERTEX
  5
476
  8
__-2
  6
DASHED2
 62
   251
 10
108.867793263523
 20
205.5212915437993
 30
0.0
  0
VERTEX
  5
477
  8
__-2
  6
DASHED2
 62
   251
 10
109.2558680349877
 20
205.6601469173272
 30
0.0
  0
VERTEX
  5
478
  8
__-2
  6
DASHED2
 62
   251
 10
109.6556843269887
 20
205.7602956849455
 30
0.0
  0
VERTEX
  5
479
  8
__-2
  6
DASHED2
 62
   251
 10
110.0633916900723
 20
205.8207733592752
 30
0.0
  0
VERTEX
  5
47A
  8
__-2
  6
DASHED2
 62
   251
 10
110.4750636794565
 20
205.8409975072519
 30
0.0
  0
VERTEX
  5
47B
  8
__-2
  6
DASHED2
 62
   251
 10
110.8867356688407
 20
205.8207733592752
 30
0.0
  0
VERTEX
  5
47C
  8
__-2
  6
DASHED2
 62
   251
 10
111.2944430319243
 20
205.7602956849455
 30
0.0
  0
VERTEX
  5
47D
  8
__-2
  6
DASHED2
 62
   251
 10
111.6942593239254
 20
205.6601469173272
 30
0.0
  0
VERTEX
  5
47E
  8
__-2
  6
DASHED2
 62
   251
 10
112.0823340953901
 20
205.5212915437993
 30
0.0
  0
VERTEX
  5
47F
  8
__-2
  6
DASHED2
 62
   251
 10
112.4549299741259
 20
205.345066817515
 30
0.0
  0
VERTEX
  5
480
  8
__-2
  6
DASHED2
 62
   251
 10
112.8084586581391
 20
205.1331698789226
 30
0.0
  0
VERTEX
  5
481
  8
__-2
  6
DASHED2
 62
   251
 10
113.1395154729441
 20
204.8876414113753
 30
0.0
  0
VERTEX
  5
482
  8
__-2
  6
DASHED2
 62
   251
 10
113.4449121604403
 20
204.6108459882353
 30
0.0
  0
VERTEX
  5
483
  8
__-2
  6
DASHED2
 62
   251
 10
113.7217075835803
 20
204.3054493007391
 30
0.0
  0
VERTEX
  5
484
  8
__-2
  6
DASHED2
 62
   251
 10
113.9672360511275
 20
203.9743924859341
 30
0.0
  0
VERTEX
  5
485
  8
__-2
  6
DASHED2
 62
   251
 10
114.17913298972
 20
203.6208638019209
 30
0.0
  0
VERTEX
  5
486
  8
__-2
  6
DASHED2
 62
   251
 10
114.3553577160043
 20
203.2482679231851
 30
0.0
  0
VERTEX
  5
487
  8
__-2
  6
DASHED2
 62
   251
 10
114.4942130895322
 20
202.8601931517204
 30
0.0
  0
VERTEX
  5
488
  8
__-2
  6
DASHED2
 62
   251
 10
114.5943618571505
 20
202.4603768597194
 30
0.0
  0
VERTEX
  5
489
  8
__-2
  6
DASHED2
 62
   251
 10
114.6548395314801
 20
202.0526694966357
 30
0.0
  0
SEQEND
  5
48A
  8
__-2
  6
DASHED2
 62
   251
  0
POLYLINE
  5
48B
  8
__-2
  6
DASHED2
 62
   251
 66
     1
 10
0.0
 20
0.0
 30
0.0
 70
   129
  0
VERTEX
  5
48C
  8
__-2
  6
DASHED2
 62
   251
 10
-15.32493632054252
 20
201.6409975072515
 30
0.0
  0
VERTEX
  5
48D
  8
__-2
  6
DASHED2
 62
   251
 10
-15.3451604685193
 20
201.2293255178673
 30
0.0
  0
VERTEX
  5
48E
  8
__-2
  6
DASHED2
 62
   251
 10
-15.40563814284896
 20
200.8216181547837
 30
0.0
  0
VERTEX
  5
48F
  8
__-2
  6
DASHED2
 62
   251
 10
-15.50578691046726
 20
200.4218018627826
 30
0.0
  0
VERTEX
  5
490
  8
__-2
  6
DASHED2
 62
   251
 10
-15.64464228399515
 20
200.033727091318
 30
0.0
  0
VERTEX
  5
491
  8
__-2
  6
DASHED2
 62
   251
 10
-15.82086701027949
 20
199.6611312125821
 30
0.0
  0
VERTEX
  5
492
  8
__-2
  6
DASHED2
 62
   251
 10
-16.03276394887191
 20
199.3076025285689
 30
0.0
  0
VERTEX
  5
493
  8
__-2
  6
DASHED2
 62
   251
 10
-16.27829241641914
 20
198.9765457137639
 30
0.0
  0
VERTEX
  5
494
  8
__-2
  6
DASHED2
 62
   251
 10
-16.55508783955917
 20
198.6711490262677
 30
0.0
  0
VERTEX
  5
495
  8
__-2
  6
DASHED2
 62
   251
 10
-16.86048452705539
 20
198.3943536031277
 30
0.0
  0
VERTEX
  5
496
  8
__-2
  6
DASHED2
 62
   251
 10
-17.19154134186041
 20
198.1488251355804
 30
0.0
  0
VERTEX
  5
497
  8
__-2
  6
DASHED2
 62
   251
 10
-17.5450700258736
 20
197.936928196988
 30
0.0
  0
VERTEX
  5
498
  8
__-2
  6
DASHED2
 62
   251
 10
-17.91766590460945
 20
197.7607034707037
 30
0.0
  0
VERTEX
  5
499
  8
__-2
  6
DASHED2
 62
   251
 10
-18.30574067607413
 20
197.6218480971758
 30
0.0
  0
VERTEX
  5
49A
  8
__-2
  6
DASHED2
 62
   251
 10
-18.70555696807518
 20
197.5216993295575
 30
0.0
  0
VERTEX
  5
49B
  8
__-2
  6
DASHED2
 62
   251
 10
-19.11326433115882
 20
197.4612216552278
 30
0.0
  0
VERTEX
  5
49C
  8
__-2
  6
DASHED2
 62
   251
 10
-19.52493632054302
 20
197.440997507251
 30
0.0
  0
VERTEX
  5
49D
  8
__-2
  6
DASHED2
 62
   251
 10
-19.93660830992722
 20
197.4612216552278
 30
0.0
  0
VERTEX
  5
49E
  8
__-2
  6
DASHED2
 62
   251
 10
-20.34431567301086
 20
197.5216993295575
 30
0.0
  0
VERTEX
  5
49F
  8
__-2
  6
DASHED2
 62
   251
 10
-20.74413196501191
 20
197.6218480971758
 30
0.0
  0
VERTEX
  5
4A0
  8
__-2
  6
DASHED2
 62
   251
 10
-21.13220673647659
 20
197.7607034707037
 30
0.0
  0
VERTEX
  5
4A1
  8
__-2
  6
DASHED2
 62
   251
 10
-21.50480261521244
 20
197.936928196988
 30
0.0
  0
VERTEX
  5
4A2
  8
__-2
  6
DASHED2
 62
   251
 10
-21.85833129922563
 20
198.1488251355804
 30
0.0
  0
VERTEX
  5
4A3
  8
__-2
  6
DASHED2
 62
   251
 10
-22.18938811403065
 20
198.3943536031277
 30
0.0
  0
VERTEX
  5
4A4
  8
__-2
  6
DASHED2
 62
   251
 10
-22.49478480152687
 20
198.6711490262677
 30
0.0
  0
VERTEX
  5
4A5
  8
__-2
  6
DASHED2
 62
   251
 10
-22.7715802246669
 20
198.9765457137639
 30
0.0
  0
VERTEX
  5
4A6
  8
__-2
  6
DASHED2
 62
   251
 10
-23.01710869221413
 20
199.3076025285689
 30
0.0
  0
VERTEX
  5
4A7
  8
__-2
  6
DASHED2
 62
   251
 10
-23.22900563080655
 20
199.6611312125821
 30
0.0
  0
VERTEX
  5
4A8
  8
__-2
  6
DASHED2
 62
   251
 10
-23.40523035709089
 20
200.033727091318
 30
0.0
  0
VERTEX
  5
4A9
  8
__-2
  6
DASHED2
 62
   251
 10
-23.54408573061878
 20
200.4218018627826
 30
0.0
  0
VERTEX
  5
4AA
  8
__-2
  6
DASHED2
 62
   251
 10
-23.64423449823708
 20
200.8216181547837
 30
0.0
  0
VERTEX
  5
4AB
  8
__-2
  6
DASHED2
 62
   251
 10
-23.70471217256674
 20
201.2293255178673
 30
0.0
  0
VERTEX
  5
4AC
  8
__-2
  6
DASHED2
 62
   251
 10
-23.72493632054352
 20
201.6409975072515
 30
0.0
  0
VERTEX
  5
4AD
  8
__-2
  6
DASHED2
 62
   251
 10
-23.70471217256674
 20
202.0526694966358
 30
0.0
  0
VERTEX
  5
4AE
  8
__-2
  6
DASHED2
 62
   251
 10
-23.64423449823708
 20
202.4603768597194
 30
0.0
  0
VERTEX
  5
4AF
  8
__-2
  6
DASHED2
 62
   251
 10
-23.54408573061878
 20
202.8601931517204
 30
0.0
  0
VERTEX
  5
4B0
  8
__-2
  6
DASHED2
 62
   251
 10
-23.40523035709089
 20
203.2482679231851
 30
0.0
  0
VERTEX
  5
4B1
  8
__-2
  6
DASHED2
 62
   251
 10
-23.22900563080655
 20
203.620863801921
 30
0.0
  0
VERTEX
  5
4B2
  8
__-2
  6
DASHED2
 62
   251
 10
-23.01710869221413
 20
203.9743924859341
 30
0.0
  0
VERTEX
  5
4B3
  8
__-2
  6
DASHED2
 62
   251
 10
-22.7715802246669
 20
204.3054493007392
 30
0.0
  0
VERTEX
  5
4B4
  8
__-2
  6
DASHED2
 62
   251
 10
-22.49478480152687
 20
204.6108459882354
 30
0.0
  0
VERTEX
  5
4B5
  8
__-2
  6
DASHED2
 62
   251
 10
-22.18938811403065
 20
204.8876414113754
 30
0.0
  0
VERTEX
  5
4B6
  8
__-2
  6
DASHED2
 62
   251
 10
-21.85833129922563
 20
205.1331698789226
 30
0.0
  0
VERTEX
  5
4B7
  8
__-2
  6
DASHED2
 62
   251
 10
-21.50480261521244
 20
205.3450668175151
 30
0.0
  0
VERTEX
  5
4B8
  8
__-2
  6
DASHED2
 62
   251
 10
-21.13220673647659
 20
205.5212915437994
 30
0.0
  0
VERTEX
  5
4B9
  8
__-2
  6
DASHED2
 62
   251
 10
-20.74413196501191
 20
205.6601469173273
 30
0.0
  0
VERTEX
  5
4BA
  8
__-2
  6
DASHED2
 62
   251
 10
-20.34431567301086
 20
205.7602956849456
 30
0.0
  0
VERTEX
  5
4BB
  8
__-2
  6
DASHED2
 62
   251
 10
-19.93660830992722
 20
205.8207733592753
 30
0.0
  0
VERTEX
  5
4BC
  8
__-2
  6
DASHED2
 62
   251
 10
-19.52493632054302
 20
205.840997507252
 30
0.0
  0
VERTEX
  5
4BD
  8
__-2
  6
DASHED2
 62
   251
 10
-19.11326433115882
 20
205.8207733592753
 30
0.0
  0
VERTEX
  5
4BE
  8
__-2
  6
DASHED2
 62
   251
 10
-18.70555696807518
 20
205.7602956849456
 30
0.0
  0
VERTEX
  5
4BF
  8
__-2
  6
DASHED2
 62
   251
 10
-18.30574067607413
 20
205.6601469173273
 30
0.0
  0
VERTEX
  5
4C0
  8
__-2
  6
DASHED2
 62
   251
 10
-17.91766590460945
 20
205.5212915437994
 30
0.0
  0
VERTEX
  5
4C1
  8
__-2
  6
DASHED2
 62
   251
 10
-17.5450700258736
 20
205.3450668175151
 30
0.0
  0
VERTEX
  5
4C2
  8
__-2
  6
DASHED2
 62
   251
 10
-17.19154134186041
 20
205.1331698789226
 30
0.0
  0
VERTEX
  5
4C3
  8
__-2
  6
DASHED2
 62
   251
 10
-16.86048452705539
 20
204.8876414113754
 30
0.0
  0
VERTEX
  5
4C4
  8
__-2
  6
DASHED2
 62
   251
 10
-16.55508783955917
 20
204.6108459882354
 30
0.0
  0
VERTEX
  5
4C5
  8
__-2
  6
DASHED2
 62
   251
 10
-16.27829241641914
 20
204.3054493007392
 30
0.0
  0
VERTEX
  5
4C6
  8
__-2
  6
DASHED2
 62
   251
 10
-16.03276394887191
 20
203.9743924859341
 30
0.0
  0
VERTEX
  5
4C7
  8
__-2
  6
DASHED2
 62
   251
 10
-15.82086701027949
 20
203.620863801921
 30
0.0
  0
VERTEX
  5
4C8
  8
__-2
  6
DASHED2
 62
   251
 10
-15.64464228399515
 20
203.2482679231851
 30
0.0
  0
VERTEX
  5
4C9
  8
__-2
  6
DASHED2
 62
   251
 10
-15.50578691046726
 20
202.8601931517204
 30
0.0
  0
VERTEX
  5
4CA
  8
__-2
  6
DASHED2
 62
   251
 10
-15.40563814284896
 20
202.4603768597194
 30
0.0
  0
VERTEX
  5
4CB
  8
__-2
  6
DASHED2
 62
   251
 10
-15.3451604685193
 20
202.0526694966358
 30
0.0
  0
SEQEND
  5
4CC
  8
__-2
  6
DASHED2
 62
   251
  0
LINE
  5
4CD
  8
__-2
  6
CONTINUOUS
 10
120.4750636794568
 20
213.6409975072525
 30
0.0
 11
120.4750636794568
 21
189.1409975072515
 31
0.0
  0
ARC
  5
4CE
  8
__-2
  6
CONTINUOUS
 10
118.9750636794568
 20
206.1409975072525
 30
0.0
 40
1.500000000000028
 50
270.0
 51
359.9999999999989
  0
ARC
  5
4CF
  8
__-2
  6
CONTINUOUS
 10
119.9750636794568
 20
189.1409975072515
 30
0.0
 40
0.5
 50
269.9999999999984
 51
0.0
  0
ARC
  5
4D0
  8
__-2
  6
CONTINUOUS
 10
-29.02493632054189
 20
189.1409975072515
 30
0.0
 40
0.4999999999999893
 50
180.0
 51
270.0000000000013
  0
ENDBLK
  5
136
  8
0
  0
BLOCK
  8
0
  2
____-56
 70
     0
 10
0.0
 20
0.0
 30
0.0
  3
____-56
  1

  0
TEXT
  5
4D1
  8
__-2
 62
     7
 10
55.72505038686249
 20
-44.4319945332246
 30
0.0
 40
2.124016203703704
  1
25
 50
90.0
  7
______MEDIUM
 11
53.60103418315879
 21
-44.4319945332246
 31
0.0
 73
     3
  0
ENDBLK
  5
13A
  8
0
  0
BLOCK
  8
0
  2
____-57
 70
     0
 10
0.0
 20
0.0
 30
0.0
  3
____-57
  1

  0
LINE
  5
4D2
  8
__-2
  6
CONTINUOUS
 62
     7
 10
68.44660594241805
 20
-30.36516510614081
 30
0.0
 11
58.44660594241807
 21
-30.36516510614081
 31
0.0
  0
LINE
  5
4D3
  8
__-2
  6
CONTINUOUS
 62
     7
 10
68.44660594241805
 20
-55.36516510614172
 30
0.0
 11
58.44660594241807
 21
-55.36516510614172
 31
0.0
  0
LINE
  5
4D4
  8
__-2
  6
CONTINUOUS
 62
     7
 10
58.44660594241807
 20
-30.36516510614081
 30
0.0
 11
58.44660594241807
 21
-55.36516510614172
 31
0.0
  0
CIRCLE
  5
4D5
  8
__-2
  6
CONTINUOUS
 62
     7
 10
58.44660594241807
 20
-30.36516510614081
 30
0.0
 40
0.2999816894531264
  0
CIRCLE
  5
4D6
  8
__-2
  6
CONTINUOUS
 62
     7
 10
58.44660594241807
 20
-55.36516510614172
 30
0.0
 40
0.2999816894531264
  0
INSERT
  5
4D7
  8
__-2
 62
     7
  2
____-56
 10
0.0
 20
0.0
 30
0.0
  0
ENDBLK
  5
13D
  8
0
  0
BLOCK
  8
0
  2
____-58
 70
     0
 10
0.0
 20
0.0
 30
0.0
  3
____-58
  1

  0
TEXT
  5
4D8
  8
__-2
 62
     7
 10
146.0963618017917
 20
-7.643609550585252
 30
0.0
 40
2.124016203703704
  1
150
  7
______MEDIUM
 11
146.0963618017917
 21
-5.519593346881548
 31
0.0
 73
     3
  0
ENDBLK
  5
140
  8
0
  0
BLOCK
  8
0
  2
____-59
 70
     0
 10
0.0
 20
0.0
 30
0.0
  3
____-59
  1

  0
LINE
  5
4D9
  8
__-2
  6
CONTINUOUS
 62
     7
 10
223.4466059424167
 20
-25.36516510614081
 30
0.0
 11
223.4466059424167
 21
-10.36516510614081
 31
0.0
  0
LINE
  5
4DA
  8
__-2
  6
CONTINUOUS
 62
     7
 10
73.44660594241668
 20
-25.36516510614081
 30
0.0
 11
73.44660594241668
 21
-10.36516510614081
 31
0.0
  0
LINE
  5
4DB
  8
__-2
  6
CONTINUOUS
 62
     7
 10
223.4466059424167
 20
-10.36516510614081
 30
0.0
 11
73.44660594241668
 21
-10.36516510614081
 31
0.0
  0
CIRCLE
  5
4DC
  8
__-2
  6
CONTINUOUS
 62
     7
 10
223.4466059424167
 20
-10.36516510614081
 30
0.0
 40
0.2999816894531193
  0
CIRCLE
  5
4DD
  8
__-2
  6
CONTINUOUS
 62
     7
 10
73.44660594241668
 20
-10.36516510614081
 30
0.0
 40
0.2999816894531193
  0
INSERT
  5
4DE
  8
__-2
 62
     7
  2
____-58
 10
0.0
 20
0.0
 30
0.0
  0
ENDBLK
  5
143
  8
0
  0
BLOCK
  8
0
  2
____-60
 70
     0
 10
0.0
 20
0.0
 30
0.0
  3
____-60
  1

  0
TEXT
  5
4DF
  8
__-2
 62
     7
 10
76.87977651533379
 20
-17.64360955058525
 30
0.0
 40
2.124016203703704
  1
10
  7
______MEDIUM
 11
76.87977651533379
 21
-15.51959334688155
 31
0.0
 73
     3
  0
ENDBLK
  5
146
  8
0
  0
BLOCK
  8
0
  2
____-61
 70
     0
 10
0.0
 20
0.0
 30
0.0
  3
____-61
  1

  0
LINE
  5
4E0
  8
__-2
  6
CONTINUOUS
 62
     7
 10
83.44660594241668
 20
-25.36516510614081
 30
0.0
 11
83.44660594241668
 21
-20.36516510614081
 31
0.0
  0
LINE
  5
4E1
  8
__-2
  6
CONTINUOUS
 62
     7
 10
73.44660594241759
 20
-25.36516510614081
 30
0.0
 11
73.44660594241759
 21
-20.36516510614081
 31
0.0
  0
LINE
  5
4E2
  8
__-2
  6
CONTINUOUS
 62
     7
 10
83.44660594241668
 20
-20.36516510614081
 30
0.0
 11
73.44660594241759
 21
-20.36516510614081
 31
0.0
  0
CIRCLE
  5
4E3
  8
__-2
  6
CONTINUOUS
 62
     7
 10
83.44660594241668
 20
-20.36516510614081
 30
0.0
 40
0.2999816894531193
  0
CIRCLE
  5
4E4
  8
__-2
  6
CONTINUOUS
 62
     7
 10
73.44660594241759
 20
-20.36516510614081
 30
0.0
 40
0.2999816894531193
  0
INSERT
  5
4E5
  8
__-2
 62
     7
  2
____-60
 10
0.0
 20
0.0
 30
0.0
  0
ENDBLK
  5
149
  8
0
  0
BLOCK
  8
0
  2
____-62
 70
     0
 10
0.0
 20
0.0
 30
0.0
  3
____-62
  1

  0
TEXT
  5
4E6
  8
__-2
 62
     7
 10
146.0963618017913
 20
-17.64360955058525
 30
0.0
 40
2.124016203703704
  1
130
  7
______MEDIUM
 11
146.0963618017913
 21
-15.51959334688155
 31
0.0
 73
     3
  0
ENDBLK
  5
14C
  8
0
  0
BLOCK
  8
0
  2
____-63
 70
     0
 10
0.0
 20
0.0
 30
0.0
  3
____-63
  1

  0
LINE
  5
4E7
  8
__-2
  6
CONTINUOUS
 62
     7
 10
83.44660594241634
 20
-25.36516510614081
 30
0.0
 11
83.44660594241634
 21
-20.36516510614081
 31
0.0
  0
LINE
  5
4E8
  8
__-2
  6
CONTINUOUS
 62
     7
 10
213.4466059424163
 20
-25.36516510614081
 30
0.0
 11
213.4466059424163
 21
-20.36516510614081
 31
0.0
  0
LINE
  5
4E9
  8
__-2
  6
CONTINUOUS
 62
     7
 10
83.44660594241634
 20
-20.36516510614081
 30
0.0
 11
213.4466059424163
 21
-20.36516510614081
 31
0.0
  0
CIRCLE
  5
4EA
  8
__-2
  6
CONTINUOUS
 62
     7
 10
83.44660594241634
 20
-20.36516510614081
 30
0.0
 40
0.2999816894531193
  0
CIRCLE
  5
4EB
  8
__-2
  6
CONTINUOUS
 62
     7
 10
213.4466059424163
 20
-20.36516510614081
 30
0.0
 40
0.2999816894531193
  0
INSERT
  5
4EC
  8
__-2
 62
     7
  2
____-62
 10
0.0
 20
0.0
 30
0.0
  0
ENDBLK
  5
14F
  8
0
  0
BLOCK
  8
0
  2
____-64
 70
     0
 10
0.0
 20
0.0
 30
0.0
  3
____-64
  1

  0
TEXT
  5
4ED
  8
__-2
 62
     7
 10
216.8797765153329
 20
-17.64360955058525
 30
0.0
 40
2.124016203703704
  1
10
  7
______MEDIUM
 11
216.8797765153329
 21
-15.51959334688155
 31
0.0
 73
     3
  0
ENDBLK
  5
152
  8
0
  0
BLOCK
  8
0
  2
____-65
 70
     0
 10
0.0
 20
0.0
 30
0.0
  3
____-65
  1

  0
LINE
  5
4EE
  8
__-2
  6
CONTINUOUS
 62
     7
 10
223.4466059424164
 20
-25.36516510614081
 30
0.0
 11
223.4466059424164
 21
-20.36516510614081
 31
0.0
  0
LINE
  5
4EF
  8
__-2
  6
CONTINUOUS
 62
     7
 10
213.446605942416
 20
-25.36516510614081
 30
0.0
 11
213.446605942416
 21
-20.36516510614081
 31
0.0
  0
LINE
  5
4F0
  8
__-2
  6
CONTINUOUS
 62
     7
 10
223.4466059424164
 20
-20.36516510614081
 30
0.0
 11
213.446605942416
 21
-20.36516510614081
 31
0.0
  0
CIRCLE
  5
4F1
  8
__-2
  6
CONTINUOUS
 62
     7
 10
223.4466059424164
 20
-20.36516510614081
 30
0.0
 40
0.2999816894531193
  0
CIRCLE
  5
4F2
  8
__-2
  6
CONTINUOUS
 62
     7
 10
213.446605942416
 20
-20.36516510614081
 30
0.0
 40
0.2999816894531193
  0
INSERT
  5
4F3
  8
__-2
 62
     7
  2
____-64
 10
0.0
 20
0.0
 30
0.0
  0
ENDBLK
  5
155
  8
0
  0
BLOCK
  8
0
  2
____-66
 70
     0
 10
0.0
 20
0.0
 30
0.0
  3
____-66
  1

  0
LINE
  5
4F4
  8
__-2
  6
CONTINUOUS
 62
     7
 10
101.6799701282477
 20
-62.14984209796833
 30
0.0
 11
94.52948253686571
 21
-62.14984209796833
 31
0.0
  0
LINE
  5
4F5
  8
__-2
  6
CONTINUOUS
 62
     7
 10
94.52948253686571
 20
-62.14984209796833
 30
0.0
 11
84.614739574389
 21
-44.97700354297272
 31
0.0
  0
TEXT
  5
4F6
  8
__-2
 62
     7
 10
102.6799701282477
 20
-62.68606432019055
 30
0.0
 40
2.124016203703704
  1
2-Φ5.0×8.0皿
  7
______MEDIUM
 11
102.6799701282477
 21
-60.56204811648684
 31
0.0
 73
     3
  0
ENDBLK
  5
158
  8
0
  0
BLOCK
  8
0
  2
____-67
 70
     0
 10
0.0
 20
0.0
 30
0.0
  3
____-67
  1

  0
TEXT
  5
4F7
  8
__-1
 62
     7
 10
231.376114499033
 20
-40.32739822269771
 30
0.0
 40
2.124016203703704
  1
R 1.5
  7
______MEDIUM
 11
231.376114499033
 21
-38.20338201899401
 31
0.0
 73
     3
  0
ENDBLK
  5
15B
  8
0
  0
BLOCK
  8
0
  2
____-68
 70
     0
 10
0.0
 20
0.0
 30
0.0
  3
____-68
  1

  0
LINE
  5
4F8
  8
__-1
  6
CONTINUOUS
 62
     7
 10
223.0072661141963
 20
-38.92582527792061
 30
0.0
 11
225.376114499033
 21
-42.14895377825327
 31
0.0
  0
CIRCLE
  5
4F9
  8
__-1
  6
CONTINUOUS
 62
     7
 10
223.0072661141963
 20
-38.92582527792061
 30
0.0
 40
0.299972944177739
  0
LINE
  5
4FA
  8
__-1
  6
CONTINUOUS
 62
     7
 10
225.376114499033
 20
-42.14895377825327
 30
0.0
 11
237.9383323809774
 21
-42.14895377825327
 31
0.0
  0
INSERT
  5
4FB
  8
__-1
 62
     7
  2
____-67
 10
0.0
 20
0.0
 30
0.0
  0
ENDBLK
  5
15E
  8
0
  0
BLOCK
  8
0
  2
____-69
 70
     0
 10
0.0
 20
0.0
 30
0.0
  3
____-69
  1

  0
TEXT
  5
4FC
  8
__-1
 62
     7
 10
232.3527174461971
 20
-55.98209794338238
 30
0.0
 40
2.124016203703704
  1
R 0.5
  7
______MEDIUM
 11
232.3527174461971
 21
-53.85808173967867
 31
0.0
 73
     3
  0
ENDBLK
  5
161
  8
0
  0
BLOCK
  8
0
  2
____-70
 70
     0
 10
0.0
 20
0.0
 30
0.0
  3
____-70
  1

  0
LINE
  5
4FD
  8
__-1
  6
CONTINUOUS
 62
     7
 10
223.3001593330097
 20
-55.21871849673499
 30
0.0
 11
226.3527174461971
 21
-57.80365349893794
 31
0.0
  0
CIRCLE
  5
4FE
  8
__-1
  6
CONTINUOUS
 62
     7
 10
223.3001593330097
 20
-55.21871849673499
 30
0.0
 40
0.2999638420425299
  0
LINE
  5
4FF
  8
__-1
  6
CONTINUOUS
 62
     7
 10
226.3527174461971
 20
-57.80365349893794
 30
0.0
 11
238.9149353281415
 21
-57.80365349893794
 31
0.0
  0
INSERT
  5
500
  8
__-1
 62
     7
  2
____-69
 10
0.0
 20
0.0
 30
0.0
  0
ENDBLK
  5
164
  8
0
  0
BLOCK
  8
0
  2
____-71
 70
     0
 10
0.0
 20
0.0
 30
0.0
  3
____-71
  1

  0
INSERT
  5
501
  8
__-2
 62
     7
  2
____-57
 10
0.0
 20
0.0
 30
0.0
  0
INSERT
  5
502
  8
__-2
 62
     7
  2
____-59
 10
0.0
 20
0.0
 30
0.0
  0
INSERT
  5
503
  8
__-2
 62
     7
  2
____-61
 10
0.0
 20
0.0
 30
0.0
  0
INSERT
  5
504
  8
__-2
 62
     7
  2
____-63
 10
0.0
 20
0.0
 30
0.0
  0
INSERT
  5
505
  8
__-2
 62
     7
  2
____-65
 10
0.0
 20
0.0
 30
0.0
  0
TEXT
  5
506
  8
__-2
 62
     7
 10
142.8021614979722
 20
-29.51849843947413
 30
0.0
 40
2.124016203703704
  1
▽化粧面
  7
______MEDIUM
 11
142.8021614979722
 21
-27.39448223577043
 31
0.0
 73
     3
  0
INSERT
  5
507
  8
__-2
 62
     7
  2
____-66
 10
0.0
 20
0.0
 30
0.0
  0
INSERT
  5
508
  8
__-1
 62
     7
  2
____-68
 10
0.0
 20
0.0
 30
0.0
  0
INSERT
  5
509
  8
__-1
 62
     7
  2
____-70
 10
0.0
 20
0.0
 30
0.0
  0
ENDBLK
  5
167
  8
0
  0
BLOCK
  8
0
  2
__-__-2
 70
     0
 10
0.0
 20
0.0
 30
0.0
  3
__-__-2
  1

  0
POLYLINE
  5
50A
  8
__-2
  6
CONTINUOUS
 62
     7
 66
     1
 10
0.0
 20
0.0
 30
0.0
 70
   129
  0
VERTEX
  5
50B
  8
__-2
  6
CONTINUOUS
 62
     7
 10
-11.23230731349521
 20
-0.5715000000000003
 30
0.0
  0
VERTEX
  5
50C
  8
__-2
  6
CONTINUOUS
 62
     7
 10
11.23230731349521
 20
-0.5715000000000003
 30
0.0
  0
VERTEX
  5
50D
  8
__-2
  6
CONTINUOUS
 62
     7
 10
11.23230731349521
 20
-6.794499999999999
 30
0.0
  0
VERTEX
  5
50E
  8
__-2
  6
CONTINUOUS
 62
     7
 10
-11.23230731349521
 20
-6.794499999999999
 30
0.0
  0
SEQEND
  5
50F
  8
__-2
  6
CONTINUOUS
 62
     7
  0
TEXT
  5
510
  8
__-2
 62
     7
 10
-10.06106650390625
 20
-4.286249999999999
 30
0.0
 40
2.389518229166667
  1
上面図(W150)
  7
______MEDIUM
 72
     1
 11
0.0
 21
-1.896731770833333
 31
0.0
 73
     3
  0
ENDBLK
  5
16A
  8
0
  0
BLOCK
  8
0
  2
__-__-3
 70
     0
 10
0.0
 20
0.0
 30
0.0
  3
__-__-3
  1

  0
POLYLINE
  5
511
  8
__-2
  6
CONTINUOUS
 62
     7
 66
     1
 10
0.0
 20
0.0
 30
0.0
 70
   129
  0
VERTEX
  5
512
  8
__-2
  6
CONTINUOUS
 62
     7
 10
-11.23230731349521
 20
-0.5715000000000003
 30
0.0
  0
VERTEX
  5
513
  8
__-2
  6
CONTINUOUS
 62
     7
 10
11.23230731349521
 20
-0.5715000000000003
 30
0.0
  0
VERTEX
  5
514
  8
__-2
  6
CONTINUOUS
 62
     7
 10
11.23230731349521
 20
-6.794499999999999
 30
0.0
  0
VERTEX
  5
515
  8
__-2
  6
CONTINUOUS
 62
     7
 10
-11.23230731349521
 20
-6.794499999999999
 30
0.0
  0
SEQEND
  5
516
  8
__-2
  6
CONTINUOUS
 62
     7
  0
TEXT
  5
517
  8
__-2
 62
     7
 10
-10.06106650390625
 20
-4.286249999999999
 30
0.0
 40
2.389518229166667
  1
正面図(W150)
  7
______MEDIUM
 72
     1
 11
0.0
 21
-1.896731770833333
 31
0.0
 73
     3
  0
ENDBLK
  5
16D
  8
0
  0
BLOCK
  8
0
  2
__-__-4
 70
     0
 10
0.0
 20
0.0
 30
0.0
  3
__-__-4
  1

  0
POLYLINE
  5
518
  8
__-2
  6
CONTINUOUS
 62
     7
 66
     1
 10
0.0
 20
0.0
 30
0.0
 70
   129
  0
VERTEX
  5
519
  8
__-2
  6
CONTINUOUS
 62
     7
 10
-10.28662927542792
 20
-0.5715000000000003
 30
0.0
  0
VERTEX
  5
51A
  8
__-2
  6
CONTINUOUS
 62
     7
 10
10.28662927542792
 20
-0.5715000000000003
 30
0.0
  0
VERTEX
  5
51B
  8
__-2
  6
CONTINUOUS
 62
     7
 10
10.28662927542792
 20
-6.794499999999999
 30
0.0
  0
VERTEX
  5
51C
  8
__-2
  6
CONTINUOUS
 62
     7
 10
-10.28662927542792
 20
-6.794499999999999
 30
0.0
  0
SEQEND
  5
51D
  8
__-2
  6
CONTINUOUS
 62
     7
  0
TEXT
  5
51E
  8
__-2
 62
     7
 10
-9.117206803385416
 20
-4.286249999999999
 30
0.0
 40
2.389518229166667
  1
側面図(共通)
  7
______MEDIUM
 72
     1
 11
0.0
 21
-1.896731770833333
 31
0.0
 73
     3
  0
ENDBLK
  5
170
  8
0
  0
ENDSEC
  0
SECTION
  2
ENTITIES
  0
INSERT
  5
51F
  8
__
 62
     7
  2
___2D
 10
50.32493632054207
 20
254.518713509407
 30
0.0
  0
INSERT
  5
520
  8
__-2
 62
     7
  2
__-__
 10
40.08818630453382
 20
298.2404727709247
 30
0.0
  0
INSERT
  5
521
  8
__-2
 62
     7
  2
__-__-1
 10
40.08818630453382
 20
173.6430834581342
 30
0.0
  0
INSERT
  5
522
  8
__
 62
     7
  2
____3D
 10
-5.386877374922705
 20
237.5374270188167
 30
0.0
  0
INSERT
  5
523
  8
__
 62
     7
  2
____-12
 10
50.32493632054207
 20
254.518713509407
 30
0.0
  0
INSERT
  5
524
  8
__
 62
     7
  2
___-2_3D
 10
-5.386877374922705
 20
210.5125508960137
 30
0.0
  0
INSERT
  5
525
  8
__
 62
     7
  2
____-28
 10
50.32493632054207
 20
254.518713509407
 30
0.0
  0
INSERT
  5
526
  8
__
 62
     7
  2
___-3_3D
 10
176.3026000952066
 20
210.5125508960137
 30
0.0
  0
INSERT
  5
527
  8
__
 62
     7
  2
____-44
 10
50.32493632054207
 20
254.518713509407
 30
0.0
  0
INSERT
  5
528
  8
__
 62
     7
  2
___-4_3D
 10
153.2964785835018
 20
37.53742701881674
 30
0.0
  0
INSERT
  5
529
  8
__
 62
     7
  2
____-55
 10
50.32493632054207
 20
254.518713509407
 30
0.0
  0
INSERT
  5
52A
  8
__
 62
     7
  2
___-5_3D
 10
153.2964785835018
 20
10.51255089601375
 30
0.0
  0
INSERT
  5
52B
  8
__
 62
     7
  2
____-71
 10
50.32493632054207
 20
254.518713509407
 30
0.0
  0
INSERT
  5
52C
  8
__-2
 62
     7
  2
__-__-2
 10
198.7715422629583
 20
298.2404727709247
 30
0.0
  0
INSERT
  5
52D
  8
__-2
 62
     7
  2
__-__-3
 10
198.7715422629583
 20
173.6430834581342
 30
0.0
  0
INSERT
  5
52E
  8
__-2
 62
     7
  2
__-__-4
 10
330.0867567194319
 20
173.6430834581342
 30
0.0
  0
TEXT
  5
52F
  8
__-2
 62
     7
 10
189.3733217768473
 20
330.1606592990698
 30
0.0
 40
2.124016203703704
  1
材質：SUS304
  7
______MEDIUM
 11
189.3733217768473
 21
332.2846755027736
 31
0.0
 73
     3
  0
TEXT
  5
530
  8
__-2
 62
     7
 10
30.64655679346401
 20
330.1606592990698
 30
0.0
 40
2.124016203703704
  1
材質：SUS304
  7
______MEDIUM
 11
30.64655679346401
 21
332.2846755027736
 31
0.0
 73
     3
  0
VIEWPORT
  5
171
 67
     1
  8
0
 10
128.5
 20
97.5
 30
0.0
 40
314.226
 41
222.18
 68
     1
 69
     1
1001
ACAD
1000
MVIEW
1002
{
1070
    16
1010
0.0
1020
0.0
1030
0.0
1010
0.0
1020
0.0
1030
1.0
1040
0.0
1040
222.18
1040
128.5
1040
97.5
1040
50.0
1040
0.0
1040
0.0
1070
     0
1070
   100
1070
     0
1070
     3
1070
     0
1070
     0
1070
     0
1070
     0
1040
0.0
1040
0.0
1040
0.0
1040
10.0
1040
10.0
1040
10.0
1040
10.0
1070
     0
1002
{
1002
}
1002
}
  0
ENDSEC
  0
EOF
